Volver a Cancionero



Agüita Fresca (Acordes guitarra) (Letra) Cancionero Tuna;Tablaturas; Folclore Argentino


 

Agüita Fresca

 

 

Autor:   Música  de  y letra de Horacio Guarany

Interpretan: Horacio Guarany; Atlantes

TunaEspaña (Don Dudo) www.TunaEspaña.es   www.TunaEspana.com

Ritmo: vals

Folclore Argentino

Enlace Youtube: pinche aqui para escuchar la canción

 

 



INTRO
               La7                       Rem
E|---------------------------------------------
B|------------5-8-7-8-10-11-10-10-5/8-6-5-6----
G|-----------6--9-8-9-10-12-10-10-6/9-7-6-7----
D|------7-6-7----------------------------------
A|-5---5---------------------------------------
E|--5-1----------------------------------------

          Do                        Fa
E|-------3-6-5-6--8-10--8--8-3/6-5-3-5---------
B|------5--8-6-8-10-11-10-10-5/8-6-5-6---------
G|-5-4-5---------------------------------------
D|---------------------------------------------
A|---------------------------------------------
E|---------------------------------------------

      Re7  Solm              Rem
E|-------5--8-6------8-6-----6-5-----6-5-------
B|------7--10-8-8---10-8-8---8-6-6---8-6-6-----
G|-7-6-7--------7-7------7-7-----7-7-----7-7---
D|----------------8--------8-------7-------7---
A|---------------------------------------------
E|---------------------------------------------

       La7           Rem
E|-5------5--------5-10-|
B|-6-8-5--6-8-5---6-----|
G|------6------6-7------|
D|----------------------|
A|----------------------|
E|----------------------|

   Rem        La7            Rem
Llegaste hasta mi como una estrella,
 Sib              Do             Fa
como la estrella azul que yo esperaba,
   Sib         Do        Fa
llegaste cuando más necesitaba
        La7                 Rem    Re7
agüita fresca para mi árbol viejo.
  Solm                   Rem
Llegaste cuando mas necesitaba
        La7                 Rem
agüita fresca para mi árbol viejo.

Llegaste hasta mi quien lo diría!
Cuando del mundo nada yo aguardaba,
cuando el invierno cruel me acorralaba,
trajiste primavera en el alba...

ESTRIBILLO
 Do                     Fa
Viniste mensajera del destino
    Do                        Fa
con una rosario entre los labios,
 Solm                    Rem
Y yo que hacia tanto no rezaba,
       La7                       Rem     Re7
¡Ahora tengo entre mis manos tu rosario!
 Solm                    Rem
Y yo que hacia tanto no rezaba,
       Sib             La7       Rem
¡Ahora tengo entre mis manos tu rosario!

INTRO

Llegaste hasta mi y estamos juntos,
aquí junto al camino que se pierde,
como dos horneritos en el nido
a orillas del Luján, en Plumas Verdes.

ACORDES ESTRIBILLO

Si tengo que decirle al mundo gracias
por todo lo que han hecho en mi presente,
¡A vos te digo gracias compañera
y en nombre del amor beso tu frente!

ESTRIBILLO
Viniste mensajera del destino
con una rosario entre los labios,
Y yo que hacia tanto no rezaba,
¡Ahora tengo entre mis manos tu rosario!

 

Comments are closed.

Volver a Cancionero