Volver a Cancionero



Diosa coronada (Acorde guitarra) (Letra Tablatura) cancionero Tuna;Folklore Colombiano


 

Diosa coronada


Autor:   Música    y letra de

Interpretan: Carlos Vives

TunaEspaña (Don Dudo) www.TunaEspaña.es   www.TunaEspana.com

Ritmo: Vallenato

Folclore Colombiano

Enlace Youtube: pinche aqui para escuchar la canción

 

e------10--12--13--12--10-------------------|
B--13----------------------13--12--10-------|
G--------------------------------------12---|

e------------------------------------------------|
B--13--13--13--13--13--12---12--10---------------|
G-----------------------------------12--12--12---|

e---------------------------------------------|
B----------10--------------10-----------------|
G------12------12------12------12--9----------|
D--10--------------10-----------------12--10--|  (Bis)    

C             
Señores voy a contarles 
          G                 C   
Hay nuevo encanto en la sabana (bis) 
F                     C
En adelanto van estos lugares  
             G           C
Ya tienen su diosa coronada (bis)
C       G                C
La vida tiene buen adelanto
C       G                 C
Y tiene diosa de los encantos
C       G               C
Y tiene su corona de reina
C        G                   C
Lo bello aquí está el Magdalena 

e-----------------------------------------------------------|
B--------5--3--6--3--5------------5--3--------3--6--3--5----|
G-----5-----------------5--5---5-----------4--------------5-|
D--5------------------------------------5-------------------|

C
Paso a contar lo siguiente
        G                C
Conozco diosa y rey querido (bis)
F                         C
Ese nombre de diosa es de gente 
             G              C
Que tenga su grado distinguido (bis)
C        G                C   
Que viva el mismo movimiento
C           G                 C                 
Y que tenga el mismo pensamiento 
C        G             C
Que viva alegre la sabana
C        G              C
Ya tiene su diosa coronada
C         G                  C
Que canta el pobre Leandro Díaz   
          G         C
Triste por la serranía

C                   
Cuando el rey querido llega  
          G         C
De tarde a la serranía (bis)
F                         C
Hay que ponerle gallina rellena
           G           C 
Que el rey fino madre mía (bis)
C        G                 C
Le pones la mesa bien servida
C        G                     C
Tu sabes que el rey  es gente fina
C        G                 C
Le pones un gran arroz volado  
C        G               C  
que coma el rey considerado

e-----------------------------------------------------------|
B--------5--3--6--3--5------------5--3--------3--6--3--5----|
G-----5-----------------5--5---5-----------4--------------5-|
D--5------------------------------------5-------------------|

C      
Cuando el rey llega de tarde 
          G               C
Que mira el jardín florecido (bis) 
F                            C   
Cuando la diosa mueve el caderaje   
           G             C
Se pone el rey más engreído (bis) 
C       G              C  
Y llega la mira con anhelo 
C      G                    C     
Y dice gracias le doy al cielo 
C        G             C 
Que viva alegre la sabana   
C        G              C
Ya tiene su diosa coronada 
C         G                 C
Que canta el pobre Leandro Díaz 
        G           C  
Triste por la serranía (4 bis)

 

Comments are closed.

Volver a Cancionero