Volver a Cancionero



Para Vigo me voy (Acorde guitarra) (Letra Tablatura) cancionero Tuna (Musica Cubana)


 

Para Vigo me voy


Autor:   Música    y letra de Ernesto Lecuona

Interpretan: Esther Borja; Miguelito Valdes; Percy Faith; Javier Cugat; Compay Segundo

TunaEspaña (Don Dudo) www.TunaEspaña.es   www.TunaEspana.com

Ritmo:

Folklore Cubano

Enlace Youtube: pinche aqui para escuchar la canción

  Ebm
e|-------------------------------------------------------
B|4-------4-------4-------4-------4-------4-------4------
G|--3-3-----3-3-----3-3-----3-3-----3-3-----3-3-----3-3--
D|------4-------4-------4-------4-------4-------4-------4
A|-------------------------------------------------------
E|-------------------------------------------------------

e|--------6-6-9-6-6---------------6-6-9-6-6--
B|--6-7-9-----------7-------6-7-9-----------7
G|8-------------------8---8------------------
D|----------------------8--------------------
A|-------------------------------------------
E|-------------------------------------------

                     C#    Ebm             C#
e|---11-11-11-11-11-|9----|11-11-11-11-11-|9
B|11----------------|--11-|---------------|-
G|------------------|-----|---------------|-
D|------------------|-----|---------------|-
A|------------------|-----|---------------|-
E|------------------|-----|---------------|-

      Ebm             C#          B          Bb7
e|---|11-11-11-11-11-|9-9-9-11-9-|7-7-7-9-7-|6---6
B|11-|---------------|-----------|----------|--6--
G|---|---------------|-----------|----------|-----
D|---|---------------|-----------|----------|-----
A|---|---------------|-----------|----------|-----
E|---|---------------|-----------|----------|-----

               Ebm
e|6-7-6-------|-
B|------9-7-6-|4
G|------------|-
D|------------|-
A|------------|-
E|------------|-

Ebm
   Vamos a la Conga, ¡Ay, Dios!

Vamos que ya suena el Bongó
                    C#
Las maracas suenas ya
   Ebm             C#
Y ya repica el timbal
    Ebm            C#
Mi negra vamos detrás
        B               Bb7    Ebm
Que la conga no vuelve más.

Ebm
   Vamos a la Conga, ¡Ay, Dios!

Vamos que ya suena el Bongó
                    C#
Las maracas suenas ya
   Ebm             C#
Y ya repica el timbal
    Ebm            C#
Mi negra vamos detrás
        B               Bb7
Que la conga no vuelve más.

Para Vigo me voy
    Eb
Mi negra dime adiós
           Bb7
Anda bongosero toca ya
                 Eb
Que estoy medio loco por bailar.

   Bb7
Para Vigo me voy, me voy, me voy
    Eb               Eb-D-Db
Mi negra dime adiós
              Ab    Abm
Que la Conga ya se va
            Eb             Bb7
Para nunca más volver a sonar.
                                Eb Ebm
Para Vigo me voy, para Vigo me voy.

  Ebm
e|-------------------------------------------------------
B|4-------4-------4-------4-------4-------4-------4------
G|--3-3-----3-3-----3-3-----3-3-----3-3-----3-3-----3-3--
D|------4-------4-------4-------4-------4-------4-------4
A|-------------------------------------------------------
E|-------------------------------------------------------

e|--------6-6-9-6-6---------------6-6-9-6-6--
B|--6-7-9-----------7-------6-7-9-----------7
G|8-------------------8---8------------------
D|----------------------8--------------------
A|-------------------------------------------
E|-------------------------------------------

                     C#    Ebm             C#
e|---11-11-11-11-11-|9----|11-11-11-11-11-|9
B|11----------------|--11-|---------------|-
G|------------------|-----|---------------|-
D|------------------|-----|---------------|-
A|------------------|-----|---------------|-
E|------------------|-----|---------------|-

      Ebm             C#          B          Bb7
e|---|11-11-11-11-11-|9-9-9-11-9-|7-7-7-9-7-|6---6
B|11-|---------------|-----------|----------|--6--
G|---|---------------|-----------|----------|-----
D|---|---------------|-----------|----------|-----
A|---|---------------|-----------|----------|-----
E|---|---------------|-----------|----------|-----

               Ebm
e|6-7-6-------|-
B|------9-7-6-|4
G|------------|-
D|------------|-
A|------------|-
E|------------|-

Ebm
   Vamos a la Conga, ¡Ay, Dios!

Vamos que ya suena el Bongó
                    C#
Las maracas suenas ya
   Ebm             C#
Y ya repica el timbal
    Ebm            C#
Mi negra vamos detrás
        B               Bb7    Ebm
Que la conga no vuelve más.

Ebm
   Vamos a la Conga, ¡Ay, Dios!

Vamos que ya suena el Bongó
                    C#
Las maracas suenas ya
   Ebm             C#
Y ya repica el timbal
    Ebm            C#
Mi negra vamos detrás
        B               Bb7
Que la conga no vuelve más.

Para Vigo me voy
    Eb
Mi negra dime adiós
           Bb7
Anda bongosero toca ya
                 Eb
Que estoy medio loco por bailar.

   Bb7
Para Vigo me voy, me voy, me voy
    Eb               Eb-D-Db
Mi negra dime adiós
              Ab    Abm
Que la Conga ya se va
            Eb             Bb7
Para nunca más volver a sonar.
                                Eb Ebm
Para Vigo me voy, para Vigo me voy.

 

Comments are closed.

Volver a Cancionero