Volver a Cancionero



Agua del pozo ,bandurria,Acorde Guitarra, Letra Tabladura, Cancionero Tuna


Agua del pozo

TunaEspaña, Tuna España, Musica de Tuna, Cancionero de Tuna, Don Dudo

Autor: Chucho Palacios; 1949

Interpretan: Pedro Infante; Jorge Negrete Con El Trio Calavera

Don Dudo  (www.TunaEspaña.es)   (www.TunaEspana.com)

Ritmo: Corrido

Pais: Mejico


D             A7            D
Aquellos tiempos que viviste junto a ,
Ebd          A7
aquellos tiempos que tu amor fue para ,
Em           A7
que en tu inocencia me confié,
Em    A7     D
y a tus encantos me ren.

D                A7            D
Mas si es sabido que al fin te iba yo a perder,
D7           G
te hubiera dado yo a beber
G          Gm         D   B7
agua del pozo de la Virgen Mejicana,
Em      A7     D
pa que aprendieras tú a querer.

E7                        A
Y ahora te miro con desprecio sin igual
E7     A
caray, caray,
E7                       A
y si te acercas a mi lado a coquetear,
E7     A A7
ya no es iguaaal.

TunaEspaña, Tuna España, Tuna Universitaria, Cancionero Tuna, Juntamento, Musica tuna , 17,dism, musica de tuna

CIFRADOS

Aquellos tiempos que viviste junto_a mí, aquellos tiempos que tu_amor fue para mí,
|-------0---2---0----2--0-2--5--4---0------------0---2---0----2---0--2---5---4-0---------
|----2----------------------------------2-----2-----------------------------------3------
|-3----------------------------------------3---------------------------------------------
|
|
|----------------------------2--0----------------------------------------2---0-----------
|-------2---3---2----3--2-3---------2------------2---3---2----3---2--3---------2--0------
|----3----------------------------------3-----3------------------------------------------
|-3----------------------------------------3---------------------------------------------

que_en tu_inocencia me confié, y_a tus encantos me rendí.
|---------------2--5---4--0--3--------------2--5---4--0-------
|----------0--3-----------------------0--3---------------2----
|----2----------------------------2---------------------------
|
|
|------------------2---0-----------------------2---0----------
|-------------0-3---------2--0-----------0--3---------2-------
|----------2--------------------------2------------------3----
|----3----------------------------3---------------------------

Mas si_es sabido que_al fin te_iba yo_a perder, te_hubiera dado yo_a beber, agua del
|------------0-2-0----2----0----2--5---4---0---------------0--5-3---0---1-2---5--4--5----
|-------2-------------------------------------2---------2--------------------------------
|--3------------------------------------------------3------------------------------------
|
|
|----------------------------------2---0----------------------2-0------------------------
|------------2-3-2----3----2----3----------2---------------2--------3---2-3---3--2--3----
|-------3-------------------------------------3---------3--------------------------------
|--3------------------------------------------------3------------------------------------

pozo de la Virgen Mejicana, pa que_aprendieras tu_a querer.
|--7-5--4--5--7--5---4-5-9-0---0--------0--2--5----4----7-5--4-2-0-----------
|-----------------------------------4------------------------------3-2-0-----
|------------------------------------------------------------------------3---
|
|
|--0----------0-------------------------0-----2----0-------------------------
|----3--2--3-----3---2-0-0-----2----0---2--3------------3-2------------------
|--------------------------3-------------------------------------------------

Y_ahora me miras con desprecio sin igual, caray, caray, y si te_acercas a mi lado_a
|---5---5--4--5-4---2---0-----0--------------0-------------------2--5--4--2--0-----0-----
|---------------------------4-----4--2--0------4----0-2---0--4------------------4--------
|----------------------------------------------------------------------------------------
|
|
|---2---2--0--2-0------------------------------------------------------------------------
|-------------------4---2---0-2---0----------2-0-----------------0--0--2--0--------------
|------------------------------------3--2-----------1-2------0---------------3--2--3-----
|---------------------------------------------------------2------------------------------

coquetear, ya no_es igua___al.
|-------------0-------2--0-2-4----
|--4--2--0--------4---------------
|---------------------------------
|
|
|------------------------0--------
|-------------2---0---4----4-3----
|--2--0---------------------------
|--------3------------------------


Tags: , , , , , , , , , ,

Leave a Reply

Volver a Cancionero