Volver a Cancionero



Alma llanera,Requinto Los Tres Reyes,Acorde Guitarra, Letra Tabladura, Cancionero Tuna, Cuatro Venezolano


Alma llanera


Autor: Musica de Pedro Elías Gutiérrez / Letra de Rafael Bolivar Coronado

TunaEspaña, Cancionero tuna, Tuna medicina Murcia, Musica de Tuna, Certamen Tuna, 45, dism

Interpretan: Trio Los Reyes,Los Tres Paraguayos, Trio Los Panchos, Simon Diaz, Alfredo Sadel, Jorge Negrete, Pedro Infante, Xiomara Alfaro,Perez Prado, Julio Iglesias, Placido Domingo,Trio Irakitan, Gregorio Barrios, TunaEspaña

TunaEspaña (Don Dudo)

Ritmo: Joropo

Venezuela

 

“Fue el 14 de septiembre de 1914 cuando la compañía española de Matilde Ruedas estrenó en el Teatro Municipal de Caracas dos obras: El sainete en un acto de El Capitán Cuñate, de Adán Salas, y Alma Llanera, zarzuela en un acto y tres cuadros sobre episodios costumbristas de los llanos venezolanos, con música del contrabajista Pedro Elías Gutiérrez (marzo 14, 1870 – mayo 31, 1954) nativo del puerto de La Guaira, en el caribe venezolano, y letra del escritor y periodista de Villa de Cura, Aragua, Rafael Bolívar Coronado (junio 6, 1884 – enero 31, 1924).
“El escenario de Alma Llanera era una casa de campo en los llanos del estado Apure; en un momento dado se escuchó una voz atiplada que entonaba un joropo que inmediatamente cautivó a los asistentes y que, según los reportes de la época, éstos aplaudieron fervorosamente al terminar la obra.

“La compañía de Matilde Ruedas llevó la zarzuela a las ciudades de Valencia, Puerto Cabello y Barquisimeto y, al mismo tiempo, Pedro Elías Gutiérrez elaboró una reducción de la partitura para ser ejecutada por la Banda Marcial de Caracas, de la cual fue su director durante 43 años.

El Venezolano Pedro Elias Gutierrez nació en La Guaira (Edo. Vargas) el 14 de marzo de 1870 y murió en Macuto (Edo. Vargas) el 31 de mayo de 1954. Compuso Alma llanera considerada el segundo Himno Nacional de Venezuela.

 

Arreglo Los Tres Reyes: (acordes de requinto) la original esta en “mi” mayor

Introducción: Am, E7 (Varias veces),
Am, G7, C, Dm, Am, E7, A, D, E7, A, D, E7, A

(Cascabel) E7, Am, E7, A, D, E7, A, D, E7

La               Si7        Mi7     Mi – Re# – Re
Yo nací en esta ribera del Arauca vibrador
Mi7         Mi – Re# – Re
soy hermano de la espuma,
Mi7          Mi – Re# – Re
de las garzas, de la rosas,
Mi7      Sim7            Do#m7           Re
soy hermano de la espuma, de las garzas, de la rosas
Mi7      La  Re – Mi7 – La – Re – Mi7
y del Sol, y del Sol.

La                Si7      Mi7                Mi – Re# – Re
Me arrulló la viva diana de la brisa en el palmar
Mi7         Mi – Re# – Re
y por eso tengo el alma
Mi7      Mi – Re# – Re
como el alma primorosa
Mi7    Sim7        Do#m7          Re
y por eso tengo el alma como el alma primorosa,
Mi7           La
del cristal, del cristal.

La     Re     Mi7        La
Amo,  Canto,  río,  lloro,
Mi7
con claveles de pasión
La
con claveles de pasión,

La      Re       Mi7       La
Para ornar las rubias crines
Mi7
Para ornar las rubias crines
La
al potro de mi patron,
Mi7          La
yo nací en una ribera del Arauca vibrador,
Mi7    La     La7 –    Re –        Mi7
soy hermano de la espuma,de la garzas,de la rosas
La
y del Sol.

 

 

REQUINTO

Para empezar este requinto esta en E (mi mayor) se toca en requinto con cejilla en 2º traste
1er requinto esta dividido en 3 partes

1ª parte se repite 2 veces

6:—————–
5:—————–
4:—————–
3:-2————-2-
2:–0-1-3——-1–
1:——-0-1-0-0–0

2ªparte

6:——————————————————-
5:——————————————————-
4:—————————————————3-2-
3:-5——————————————2-0-2-0—-
2:-5————————3-1-0-0-0-0–0-1-0———–
1:-5-8-7-5-4-7-5-4-5-0-0-1-0—————————–

6:———————-3-3-1-0—————–
5:——–3-2-0–2-3-2-0-0———————-
4:-2-3-2-0————————————–
3:—————————–2————-2–
2:——————————0-1-3——-1—
1:———————————–0-1-0-0–0-

3ªparte el cascabel se repite 2 veces y tambien se toca
despues de algunos parrafos pongan atencon donde va

6:—————————–
5:-0-4————————-
4:—-2-0-4——————–
3:———2——————-
2:———-0——-0——–0-
1:———–0-3-2h0-0-3-2h0—

Un par de ventajas de los tres reyes es que son 2 requintos RAUL Y GILBERTO
esta dificil sacar segundas a los requintos cuando es uno solo
y otra gilberto puente siempre usa figuras basicas para sus requintos
y muchos tonos al aire por eso tiene velocidad.

2º requinto no es muy dificil; esta dividido en 5 partes

1ªparte 2 veces

6:————
5:————
4:-6-4–9–7–
3:-4-2–9–7–
2:-5-3–9–7–
1:-4-2–12-10-

2ª parte la escala esta parte se toca asi con el pulgar das la
progresion y con el indice contrapunteas la segunda cuerda

6:-0-4-2-5-4————————–
5:———–2-0-4-2-5-4————–
4:———————–2-0-4-2-6-4–
3:————————————
2:–0-0-0-0-0-0-0-0-0-0-0-0-0-0-0-0-0-
1:————————————

6:——————————————————————-
5:——————————————————————-
4:—————————————14————————–
3:-2-1-4-2-6-4-7-6-9-7-11-9-13-11-14-13–13-13-13-13-13-13-13-13-13–
2:–0-0-0-0-0-0-0-0-0-0–0-0–0–0–0–0-0—————————
1:—————————————0—-0–0–0–0–0–0–0–0-

3ªparte el arpa este toque se da muy suave hacia arriba alternado
los dedos indice y medio

6:—————————————————————-
5:—————————————————————-
4:—-2-2————–2-2————–2-2——-2-2——-2-2—
3:—1-1————–1-1————–1-1——-1-1——-1-1—-
2:–0-0————–0-0————–0-0——-0-0——-0-0—–
1:-2-2—0-0–0-0-0-2-2—0-0–0-0-0-2-2—0-0-2-2—0-0-2-2—0-0

4ªparte arpa punteada

(esta parte entre parentesis se da con remates)
6:—————————————-
5:-7-7-7-7-7-7-7-7-7-7-7-7-(7-7-7-7-7-7-7-7)
4:-6-6-6-6-7-7-7-7-6-6-6-6-(7-7-7-7-7-7-7-7)
3:-7-7-7-7-6-6-6-6-7-7-7-7-(6-6-6-6-6-6-6-6)
2:-5-5-5-5-5-5-5-5-5-5-5-5-(5-5-5-5-5-5-5-5)
1:–0-0-0-0-0-0-0-0-0-0-0——————-

6:————————-
5:-7-7-7-7-7-7-7-7-7-7-7-7-  Depues de esto se hace una pausa de
4:-6-6-6-6-7-7-7-7-6-6-6-6-   3seg y se pasa a la 5ªparte el cascabel
3:-7-7-7-7-6-6-6-6-7-7-7-7-
2:-5-5-5-5-5-5-5-5-5-5-5-5-
1:–0-0-0-0-0-0-0-0-0-0-0–

5ª parte se repite el cascabel 2 veces

6:—————————–
5:-0-4————————-
4:—-2-0-4——————–
3:———2——————-
2:———-0——-0——–0-
1:———–0-3-2h0-0-3-2h0—


Bandurria seria asi:

A                           B7         E7 / E / D# / E
Yo nací en esta ribera del Arauca vibrador
E7 / E / D# / D                    E7 / E / D# / D
soy hermano de la espuma,           de la garza, de la rosa,
E7          Bm7          C#m7  D
soy hermano de la espuma, de la garza, de la rosa
E7         A  / D / E7 / A / D / E7
y del Sol, y del Sol.

A                              B7            E7 / E / D# / D
Me arrulló la viva diana de la brisa en el palmar
E7 / E / D# / D                   E7 / E / D# / D
y por eso tengo el alma            como el alma primorosa
E7           Bm7       C#m7  D
y por eso tengo el alma como el alma primorosa,
E7           A
del cristal, del cristal.

A      D      E7    A
Canto, sueño, o, lloro,
E7
con claveles de pasión
A
con claveles de pasión,
D               E7               A
amo mi Venezuela, patria querida del Libertador.

E7
Para ornar las rubias crines
A
al potro más corredor,
E7                    A
yo nací en esta ribera del Arauca vibrador,
E7                        A / A7 / D / E7
soy hermano de la espuma, de la garza, de la rosa
A
y del Sol.

INTRODUCCIÓN: Am, E7 (Varias veces), Am, G7, C, Dm, Am, E7, A, D, E7, A, D, E7, A
(Cascabel) E7, Am, E7, A, D, E7, A, D, E7

TunaEspaña, Tuna España, Tuna Universitaria, Cancionero Tuna, Juntamento, Musica tuna , 17

CIFRADOS

|--------------------------------0-3-2-0---2-0---0-----0-3-2-0---2-0---0---0-3-2-0---0--
|---------0-1-0----------0-1-0-----------4-----4---0-----------4-----4-------------3----
|---0-1-3----------0-1-3----------------------------------------------------------------
|-3--------------3----------------------------------------------------------------------

|------------------------0---------------------0------------------------------0---------
|-3-1-1-0----------0-1-0---0-1---0-------0---2----0-4-2-0--0-4-2-0------0---2---0-4-2-0-
|------------0-1-3-------------3-------2---3--------------------------2---3-------------
|----------3-------------------------3------------------------------3-------------------

|---------------3-3-3-3-2-0-----0-2-2-0---0---3-3-3-3-2-0-----0-2-2-0---0---
|-0-4-2-0---0---------------4-4---------4-----------------4-4---------4-----
|---------------------------------------------------------------------------
|---------------------------------------------------------------------------

|-----------0---------------------------------0------------------------0--4---
(*) |-----0---2------0-4-2-0--0-4-2-0-------0---2----0-4-2-0--0-4-2-0---0---------
|---2---3-----------------------------2---3-----------------------------------
|-3---------------------------------3-----------------------------------------

Yo nací_en una ribera del Arauca vibrador,                   soy hermano de la_espuma,
|--------0-----2--0-4-2--0----2--0----------------0-2-0-4-2-0----------0-0--2---0-------
|--0--0------4--------------4-------4--2-4--0-2-4-------------4-2---2---------------4-0-
|---------------------------------------------------------------------------------------

de la garza de la rosa,                   soy hermano de la_espuma,
|-----0-2-0-4-2-0-----------0--0--2--0----------0-2-0-4-2-0------------0-0--2---0-------
|-2-4-------------4-2-2--2--------------4-0-2-4-------------4-2-2---2---------------4-0-
|---------------------------------------------------------------------------------------

de la garza de la rosa y del sol (del sol), y del sol.     Me_arrulló ... (igual)
|---------------------------------------2-----------------
|-0--0--2-----------0----------0----4--------------------- (*)
|----------3--3--3----2-3--0-----------------3--0---------
|---------------------------------------------------3-----

Amo, lloro, canto, sueño, con claveles de pasión, con claveles de pasión. Para_ornar
|---------------------0--0---4----0-2-----0----------2------0---------------------------
|-0-0----2-2---4--4-------------------4-----2-------------4---2---4--0-------0--0---2---
|-----------------------------------------------3----------------------2----------------

las rubias crines, para_ornar las rubias crines del potro de mi_amador. Yo nací_en una
|-------------0-0----4--0---2-------0---------------------------------------------------
|-2---4-4-----------------------4-----2-----4-0---0---2--0----------------0--0--0---0---
|-----------------------------------------------------------3---2--0------------------3-
|--------------------------------------------------------------------3------------------

ribera del Arauca vibrador, soy hermano de la_espuma de la garza_y de las rosas y del
|----------------------------------------------------------------------------0-4--2-----
|----0-------------------------0---0--0-0----------0--------------0---2--4-----------0--
|--2---0--3--3-3--3--2--0------------------3---2-----0--0--2--3-------------------------
|-------------------------3-------------------------------------------------------------

sol, del sol, del sol.
|--0----2---4----5---7-----
|--------------------------
|--------------------------

Tablaturas Cuatro Venezolano

. .. .. .. .. .. .. .
Yo na en esta ribera del Arauca vibrador,
.. .... .... .... .. ..
soy hermano de la espuma,                   de las garzas, de las rosas
.. .. .. .... .. . .. .... .. ..
soy hermano de la espuma de las garzas, de las roosas     y del sol. . y del sol. .

Me arrulló la viva Diana de la brisa en el palmar
y por eso tengo el alma como el alma primorosa
y por eso tengo el alma como el alma primorosa
del cristal… del cristal.


Amo,  lloro, canto, sueño. .

.. .. .. .. ..  . . .. .. ..
con claves de pasión,   con claveles de pasión,
.. .. .. .. .. .. ... .. .. .. .. .. ..
Para ornar las rubias crines del potro de mi amador.
.. .. .. .. .. .. .. .. ..
Yo nací en esta ribera del Arauca vibrador,
. .. .. .. .. .. .. .. .. .. .. .... 
soy hermano de la espuma, de las garzas, de las rosas                   y del sol.

Me arrulló la viva Diana…

Version Trio Irakitan y Gregorio Barrios

Tono: C
		
(intro) Cm   Dm7   G7   Cm6   Dm7   G7   C7M   F7M   G7   G7   C7M   D7M   G7

C7M   C7M
Yo nací en esta ribera
      D7         G7   F
del Arauca vibrador,
       Dm7           G7   F
soy hermano de la espuma,
       Dm7              G7    F
de las garzas, de las rosas,
       Dm7           G7
soy hermano de la espuma,
        F              C
de las garzas, de las rosas
       G7         C   F   G7   C   F   G7
y del sol, y del sol.

Me arrulló la viva diana
de la brisa en el palmar,
y por eso tengo el alma
como el alma primorosa,
y por eso tengo el alma
como el alma primorosa
         G7           C
del cristal, del cristal.

 C    F      G7      C
Amo, lloro, canto, sueño,
C7M               Dm7
con claveles de pasión,
G7                C7M
con claveles de pasión.

C      Dm7       G7       C
Para ornar las rubias crines
C7M                    Dm7
Para ornar las rubias crines
G7                  C
del potro de mi amador,

                   G7
yo nací en esta ribera
                 C
del Arauca vibrador,
                     G7
soy hermano de la espuma,
                         C   Am7   Dm7
de las garzas, de las rosas
G     C7M
y del sol.



10576969_1450535245219665_6682905481532058566_n 

Tags: , , , , , , , , , , , , , , ,

Leave a Reply

Volver a Cancionero