Volver a Cancionero



Amigo (René C.) (Bandurria) (Acorde guitarra) (Letra Musica)Tuna


Amigo

 

Autor:  René Carsaga (René Careaga)

Interpretan: Illapu

Tuna España (Don Dudo)     www.TunaEspana.com    www.TunaEspaña.es

Ritmo: Takirari

Chile (Folklore Popular Chileno)

Enlace Youtube: pinche aqui para escuchar la canción

 

 


Am      Em      B7 / Em / E7
¡Canta,   amigo!
Am      Em      B7 / Em / E7
¡Canta,   amigo!

Em     Am
Amigo, amigo,
B7             Em
Amigo de la tristeza soy.
Am
Amigo, amigo,
B7               Em
Buscando un amor yo voy.

E7    Am
No conozco el amor sincero,
D7          G
Todo es un momento más,
C             B7
Dónde estás amor, te espero,
Am    B7   Em
Sé que nunca llegarás.

Amigo, amigo. . .

D                A
Mi guitarra también llorando
C          Bm
Tiene su modo de cantar,
Em             B7
Y con ella voy suplicando
C     G   B7    Em
Un cariño para amar.

Am                               Em
Lara lara la lai la lai ¡Canta!  Lara lara la lai la lai ¡Amigo!
B7               Em / E7
Lara lara la rai....
Am                               Em
Lara lara la lai la lai ¡Canta!  Lara lara la lai la lai ¡Amigo!
B7               Em / E7
Lara lara la rai....

Amigo, amigo. . .

E  E7      Am
Cuando estoy para dormirme
D7              G
No tengo con quien soñar.
C            B7
Cuando quiero emborracharme
Am       B7      Em
No tengo por quién brindar.

CIFRADOS

¡Canta!                 ¡Amigo!
|-3-3-3-2-0-0-2-3---------2-2-2-0-----0-2---------0-0-0---------0-2-2-0------------------
|---------------------------------3-3-------------------3-2-2-3---------3-2-3-4-3-4------
|----------------------------------------------------------------------------------------
|
|
|-0-0-0---------0------------------------------------------------------------------------
|-------3-2-2-3-----------3-3-3-2-0-0-2-3---------2-2-2-0-----0-2-3-3-2-0---0-2-0-2------
|---------------------------------------------------------4-4-------------4--------------

¡Canta!                 ¡Amigo!
|-3-3-3-2-0-0-2-3---------2-2-2-0-----0-2---------0-0-0---------0-2-2-0-----
|---------------------------------3-3-------------------3-2-2-3---------3---
|---------------------------------------------------------------------------
|
|
|-0-0-0---------0-----------------------------------------------------------
|-------3-2-2-3-----------3-3-3-2-0-0-2-3---------2-2-2-0-----0-2-3-3-2-0---
|---------------------------------------------------------4-4---------------

Amigo amigo amigo de la tristeza soy. Amigo amigo buscando_un amor yo voy.
|-----------0-2-2-2--2--2---2--7-2--2-------------0--2--2---2---2-2---2--7-----
|-0-0-3-3-2-----------------------------0-0-3-3-2------------------------------
|------------------------------------------------------------------------------
|
|
|------------------------------------------------------------------------------
|-0-0-0-0----------------------0----0---0-0-0-0--------------------------0-----
|---------1-1-4-4-4--4--4---4----4--------------1-1--1--0---0---0-4---4--------

No conozco_el amor sincero todo_es un momento más donde_estás mi_amor te_espero se que
|-2--3-5---5---4-5---2--3-3--0--2---3---2-3--0--2-------0---2----1--2--------0-0--3---3--
|---------------------------------------------------3--------------------3---------------
|---------------------------------------------------------------------------------------- |
|
|----0-2---2---1-2------0-0---------0-----0---------------------------------------0---0--
|-3------------------3-------2--3-------4----2--3---0---2---3----2--3----0---2-2---------
|----------------------------------------------------------------------------------------

nunca llegarás.
|-2--2---0-0-------
|------------3-----
|------------------
|
|
|------------------
|-3--3---2-2-0-----
|------------------

Mi guitarra también llorando tiene su modo de cantar y con ella voy suplicando un
|--2---3-5--5--5---5----5-4--4--4--4--3--3-3--3--3--2--2--2--7--7--7---7--7-6--6-3-------
|----------------------------------------------------------------------------------------
|----------------------------------------------------------------------------------------
|
|
|----------------------------------------------------------------------------------------
|------0-2--2--2---2----2-0--0--0--0--0--0-0--0--0-----0--2--3--3--3---3--3-2--2-0-------
|--3------------------------------------------------3------------------------------------

cariño para_amar.
|--3-2-2--6--6--7-----
|---------------------
|---------------------
|
|
|---------------------
|--0------------0-----
|----3-3--4--4--------


Leave a Reply

Volver a Cancionero