Volver a Cancionero



Cuando llora mi guitarra ,Acorde Guitarra, Letra Tabladura, Cancionero Tuna,Peru xx


 

Cuando llora mi guitarra

Autor:   Augusto Polo Campos

Interpretan: Maria Dolores Pradera, Los Morochucos, Julio Jaramillo, Chaqueño Palavecino, Odilio Gonzalez, Raphael

01 TunaEspaña Tunas de España

TunaEspaña (Don Dudo) www.TunaEspaña.es   www.TunaEspana.com

Ritmo:Vals

Folklore

 

 

 

Oscar Avilés, Augusto “Polo” Campos, “Pocho” Rospigliosi y “Zambo” Cavero

 

 

T: 2 o 3 primeras cuerdas rapido

INTRO
    T   T                              T
|--14--10----7------7--10-10-9--10-9--10-|
|--15--12---------7----12-12-11-12-11-12-|
|----------7----7------------------------|
|----------------------------------------|
|----------------------------------------|
|----------------------------------------|
           T                         T
|-9--8-9---5------5--9--9--8---9--8--9---|
|-10-9-10--7----7---10-10--9--10-9--10---|
|-------------7--------------------------|
|----------------------------------------|
|----------------------------------------|
|----------------------------------------|
               T
|-4s9--7-7-8-8-9------4--7-7-6-7--9------|
|-5s10-9-9-9-9-9----6----9-9-8-9-10------|
|-----------------6----------------------|
|----------------------------------------|
|----------------------------------------|
|----------------------------------------|

|-10--9---7----5---3----2---1------------|
|-12--10--9--7---5----3---2--------------|
|----------------------------------------|
|----------------------------------------|
|----------------------------------------|
|----------------------------------------|

(ARPEGIADO)
                MIm MI7
Cansado de llamarte
                   LAm
con mi alma destrozada
                     DO
comprendo que no vienes
                  SI7
porque no quiere dios

(VALS)
                     LAm
y al ver que inútilmente
                  MIm
te envío mis palabras
                  SI7
llorando mi guitarra
              MIm MI7
te deja oír su voz (BIS)

LAm                    MI7              LAm
Llora guitarra porque eres mi voz de dolor
MIm                   SI7             MIm
grita su nombre de nuevo si no te escucho
    LAm                                       MIm
y dile que aun la quiero que aun espero que vuelva
                                      SI7
que si no viene mi amor no tiene consuelo
                                 MIm
que solitario sin su cariño me muero

MI7     LAm                                       MIm
Guitarra tu que interpretas en tu vibrar mi quebranto
                        DO        SI7
tu que recibes en tu madero mi llanto
                                MIm
llora conmigo si no la vieras volver

|--14--14--14--14--10--10--7--7----------|
|--15--15--15--15--12--12--7--7----------|
|----------------------------------------|
|----------------------------------------|
|----------------------------------------|
|----------------------------------------|
                                T
|--------7--10-10-9--10-9--10--10--------|
|------7----12-12-11-12-11-12--12--------|
|----7-----------------------------------|
|----------------------------------------|
|----------------------------------------|
|----------------------------------------|
                                         T
|-9--8-9-----5---------5--9--9--8--9--8--9-|
|-10-9-10--7----7----7---10-10-9--10-9--10-|
|-------------7----7-----------------------|
|------------------------------------------|
|------------------------------------------|
|------------------------------------------|

|-4s9--7-7-8-8-9-9-9-----4--7-7-6-7--9-----|
|-5s10-9-9-9-9-9-9-9---6----9-9-8-9-10-----|
|--------------------6---------------------|
|------------------------------------------|
|------------------------------------------|
|------------------------------------------|

|-10--9---7----5---3----2---1------------|
|-12--10--9--7---5----3---2--------------|
|----------------------------------------|
|----------------------------------------|
|----------------------------------------|
|----------------------------------------|

LAm                    MI7              LAm
Llora guitarra porque eres mi voz de dolor
MIm                   SI7             MIm
grita su nombre de nuevo si no te escucho
    LAm                                       MIm
y dile que aun la quiero que aun espero que vuelva
                                      SI7
que si no viene mi amor no tiene consuelo
                                 MIm
que solitario sin su cariño me muero

MI7     LAm                                       MIm
Guitarra tu que interpretas en tu vibrar mi quebranto
                        DO        SI7
tu que recibes en tu madero mi llanto
                                MIm
llora conmigo si no la vieras volver

FINAL
|--5--4--5-------9-8--9------14-13-14----|
|--7--6--7------10-9-10------14-14-14----|
|----------------------------------------|
|----------------------------------------|
|----------------------------------------|
|----------------------------------------

 

Tags: , , , , , , , , , , , , , , , , , , , , , , , , , , , , , , , , , , , , , , , , , , , , , , , , ,

Comments are closed.

Volver a Cancionero