Volver a Cancionero



Barrio brujo,Plaza Preciosa ,Acorde Guitarra, Letra Tabladura, Cancionero Tuna


 

Barrio brujo

(Plaza Preciosa)

TunaEspaña, Pasacalles, Musica de Tuna, 07, BUENA, dism, Cancionero Tuna, Don Dudo, Certamen Tuna

Autor: Tuna de Peritos de Sevilla

Interpretan: Tuna Economicas de Sevilla

Tuna España (Don Dudo)     www.TunaEspana.com    www.TunaEspaña.es

Ritmo: Pasodoble

España

A
Entre los barrios sevillanos,

existe uno de leyenda,
G              F
pues son sus calles tan solitarias
E7
que es un encanto.
G
Y en el verano
F                  E7 / 42, 40, 53, 52, 50, 63, 61, 60, 61, 60
en ninguna de ellas penetra el Sol.

A
Plaza preciosa de Doña Elvira,
Bbd         E7
es el más bello placer en esta vida,
Bm                E7
hermosa y bella, pues son notables,
Bm             E7              A
Santa Teresa, Lope de Rueda y los Venerables.

A
Plaza preciosa de Doña Elvira,
A7            D
calle Pimienta y del Agua el callejón,
Dm          A    F#7
bellos jardines de Murillo,
Bm  E7            A / E7 / A
lo más hermoso  que Dios creó.

E                      Am
Plaza preciosa, de luces y de claveles,
G       F        E7
como sultanas viven tus mujeres
E                        Am
engalanadas, siempre tras de la reja,
G          F       E7 / 42, 40, 53, 52, 50, 63, 61, 60, 61, 60
que en grandes fiestas tan solo se ven.

INTRODUCCIÓN: Am, G, F, E7, Am, G, F, E7, 42, 40, 53, 52, 50, 63, 61, 60, 61, 60

CIFRADOS

|-0-2-3-0-2-3--0-2---0-2----0-2-0----------0-2-3-0-2-3--0-2---0-2----0-2-0---------------
|------------------3------3-------3-1-0---------------------3------3-------3-1-0---------
|----------------------------------------------------------------------------------------

|-----------------
|-0---0----0-0----
|---1---0---------

Entre los barrios sevillanos, existe uno de leyenda, pues son sus calles tan solitarias
|------------0-------2----2-0----------0----2----2--0---0----2---3---2--3---2---0---0-2--
|-0------0------4------4--------0----0---4-----4----------------------------------3------
|-----2---------------------------2------------------------------------------------------

que_es un encanto, y_en el verano_en ninguna de_ellas penetra_el Sol.
|----0----------------0---2---3-2--3----2--0-----0---2---0----------------------------
|--------3--1--1--0--------------------------3-------------3---1----0---0---0---0-0---
|-------------------------------------------------------------------------1---0-------

Plaza preciosa de Doña_Elvira, es el más bello placer en esta vida, hermosa_y bella
|---4-4---0-2--0--4--4--0---2-0--0--0----------------------------------2--2--0---0-------
|---------------------------------------4---2--0---0-2--0--2--0--2-4----------------4----
|----------------------------------------------------------------------------------------

pues son notables Santa Teresa, Lope de Rueda_y los venerables. Plaza preciosa de
|--2----2---0-0--------------------------------0--------------------4-4---0-2--0--4------
|----------------4---4--4--4-4-4---4-4--4--4-------4---2-0-2--0--------------------------
|----------------------------------------------------------------------------------------

doña_Elvira, calle Pimienta y del Agua_el callejón, bellos jardines de Murillo, lo más
|--4--0---2-0---0--0--0--2--0-0--0--2---0--------------0--0---0--0-0---5--4-2--0---0--0--
|--------------------------------------------3--3-2--------------------------------------
|----------------------------------------------------------------------------------------

hermoso que Dios cre_o_ó.
|-----------5--5-----4-2-0----
|--4--2-0---------------------
|-----------------------------


Tags: , , , , , , , , ,

Leave a Reply

Volver a Cancionero