Volver a Cancionero



Quiero ser tu sombra (Acorde guitarra) (Letra Tablatura) cancionero Tuna


Quiero ser tu sombra

Carlos / Carluchos “Valsecito Peruano”

Autor:   Z. Alcayaga (H. Quattromano y Zulema Alcayaga)

Interpretan: Los Indios Tacunau,Trio Avilano

TunaEspaña (Don Dudo) www.TunaEspaña.es   www.TunaEspana.com

Ritmo: Vals Venezolano

Enlace Youtube: Pinche aqui para escuchar la cancion

Versión Original :

1|--0-1-0-------8-0-8-0-8-0-8-10-7-6-7--|
2|--------4-5---------------------------|
3|--------------------------------------|
4|--------------------------------------|
5|--------------------------------------|
6|--------------------------------------|

1|--0-1-0-------7-0-7-0-7-0-7-8-5-4-5---|
2|--------4-5---------------------------|
3|--------------------------------------|
4|--------------------------------------|
5|--------------------------------------|
6|--------------------------------------|

1|--0-1-0-----5-5-5-5-3-3-3-5-3-1-0-1---|
2|--------4-5---------------------------|
3|--------------------------------------|
4|--------------------------------------|
5|--------------------------------------|
6|--------------------------------------|

1|--1-0-------------------0-1-0-----------0-5--|
2|-----3-1-0-------0-1-3--------3-1-0---1------|
3|-----------2-1-2--------------------2--------|
4|---------------------------------------------|
5|---------------------------------------------|
6|---------------------------------------------|

1|--12--12-10-0--12-10-0--12-10-0--12-10-0--|
2|------------------------------------------|
3|------------------------------------------|
4|------------------------------------------|
5|------------------------------------------|
6|------------------------------------------|

1|--10-8-0--10-8-0--10-8-0--10-8-0----------|
2|------------------------------------------|
3|------------------------------------------|
4|------------------------------------------|
5|------------------------------------------|
6|------------------------------------------|

1|--8-7-0--8-7-0--8-7-0--8-7-0--------------|
2|------------------------------------------|
3|------------------------------------------|
4|------------------------------------------|
5|------------------------------------------|
6|------------------------------------------|

1|--7-5-0--7-5-0--7-5-0--7-5-0--------------|
2|------------------------------------------|
3|------------------------------------------|
4|------------------------------------------|
5|------------------------------------------|
6|------------------------------------------|

1|--5-3-0--5-3-0--5-3-0--5-3-0----3-1-0-1---|
2|------------------------------------------|
3|------------------------------------------|
4|------------------------------------------|
5|------------------------------------------|
6|------------------------------------------|

1|--1-0-------------------0-1-0-----------0-5--|
2|-----3-1-0-------0-1-3-------3-1-0---1-------|
3|-----------2-1-2-------------------2---------|
4|---------------------------------------------|
5|---------------------------------------------|
6|---------------------------------------------|

Otra versión :

1|----------------------------------------|
2|--------------1----1--1--1---3-1-0---0--|
3|-----------------------------------2----|
4|--2-3-2-1-2------2--2--2----------------|
5|--------------0-------------------------|
6|----------------------------------------|

1|----------------------------------------|
2|--------------0----0--0--0---1-0--------|
3|---------------------------------3-2-3--|
4|--2-3-2-1-2------2--2--2----------------|
5|----------------------------------------|
6|----------------------------------------|

1|----------------------------------------|
2|----------------------------------------|
3|--------------2-1-2-1-0-0-0-2-0---------|
4|--2-3-2-1-2---------------------3-2-3---|
5|----------------------------------------|
6|----------------------------------------|

1|--1-0-------------------0-1-0-----------0-5--|
2|-----3-1-0-------0-1-3-------3-1-0---1-------|
3|-----------2-1-2-------------------2---------|
4|---------------------------------------------|
5|---------------------------------------------|
6|---------------------------------------------|

1|--12--12-10-0--12-10-0--12-10-0--12-10-0--|
2|------------------------------------------|
3|------------------------------------------|
4|------------------------------------------|
5|------------------------------------------|
6|------------------------------------------|

1|--10-8-0--10-8-0--10-8-0--10-8-0----------|
2|------------------------------------------|
3|------------------------------------------|
4|------------------------------------------|
5|------------------------------------------|
6|------------------------------------------|

1|--8-7-0--8-7-0--8-7-0--8-7-0--------------|
2|------------------------------------------|
3|------------------------------------------|
4|------------------------------------------|
5|------------------------------------------|
6|------------------------------------------|

1|--7-5-0--7-5-0--7-5-0--7-5-0--------------|
2|------------------------------------------|
3|------------------------------------------|
4|------------------------------------------|
5|------------------------------------------|
6|------------------------------------------|

1|--5-3-0--5-3-0--5-3-0--5-3-0----3-1-0-1---|
2|------------------------------------------|
3|------------------------------------------|
4|------------------------------------------|
5|------------------------------------------|
6|------------------------------------------|

1|--1-0-------------------0-1-0-----------0-5--|
2|-----3-1-0-------0-1-3-------3-1-0---1-------|
3|-----------2-1-2-------------------2---------|
4|---------------------------------------------|
5|---------------------------------------------|
6|---------------------------------------------|

Otra versión :

1|-----------------8----8--8--8--10-8-7-6-7--|
2|-------------------------------------------|
3|--8-9-10-9-8-9------9--9--9-----9-9-7-6-7--|
4|-------------------------------------------|
5|-------------------------------------------|
6|-------------------------------------------|

1|-----------------7----7--7--7---8-7-5-4-5--|
2|-------------------------------------------|
3|--8-9-10-9-8-9------7--7--7-----9-7-5-4-5--|
4|-------------------------------------------|
5|-------------------------------------------|
6|-------------------------------------------|

1|-----------------5-5-5-5--3-3-3--5-3--1-2-1--|
2|--4-5-6-5-4-5----5-5-5-5--5-5-5--5-5--3-0-3--|
3|---------------------------------------------|
4|---------------------------------------------|
5|---------------------------------------------|
6|---------------------------------------------|

1|--1-0-------------------0-1-0-----------0-5--|
2|-----3-1-0-------0-1-3-------3-1-0---1-------|
3|-----------2-1-2-------------------2---------|
4|---------------------------------------------|
5|---------------------------------------------|
6|---------------------------------------------|

1|-12--12-10-9-10-12-10-13----12-10-12-----------|
2|-----------------------------------------------|
3|-----------------------------------------------|
4|-----------------------------------------------|
5|-----------------------------------------------|
6|-----------------------------------------------|

1|--10-8-7-8-10-8-12----10-8-10------------------|
2|-----------------------------------------------|
3|-----------------------------------------------|
4|-----------------------------------------------|
5|-----------------------------------------------|
6|-----------------------------------------------|

1|--8-7-6-7-8-7-10----8-7-8----------------------|
2|-----------------------------------------------|
3|-----------------------------------------------|
4|-----------------------------------------------|
5|-----------------------------------------------|
6|-----------------------------------------------|

1|--7-5-4-5-7-5-8--------------------------------|
2|-----------------------------------------------|
3|-----------------------------------------------|
4|-----------------------------------------------|
5|-----------------------------------------------|
6|-----------------------------------------------|

1|--5-3-0--5-3-0--5-3-0--5-3-0----3-1-0-1--------|
2|-----------------------------------------------|
3|-----------------------------------------------|
4|-----------------------------------------------|
5|-----------------------------------------------|
6|-----------------------------------------------|

1|--1-0-------------------0-1-0-----------0-5--|
2|-----3-1-0-------0-1-3-------3-1-0---1-------|
3|-----------2-1-2-------------------2---------|
4|---------------------------------------------|
5|---------------------------------------------|
6|---------------------------------------------|

Tags: , , , , , , , , , , , , , , , , , , , , , , , , , , , , , , , , , , , , , ,

Comments are closed.

Volver a Cancionero