Volver a Cancionero



Las Quimeras (Acorde guitarra) (Letra Tablatura) cancionero Tuna (Folclore Argentino) xx


Las Quimeras

Autor:   

Interpretan: Los Cantores del Alba

TunaEspaña (Don Dudo) www.TunaEspaña.es   www.TunaEspana.com

Ritmo:Vals

Enlace Youtube: Pinche aqui para escuchar la cancion

Acordes F#m C#7 Bm  E7 A

Intr.

e----------------------------------------
B---10-9--------------9-10/12-10-9--9/14-
G-------11-9---------------------11------
D-11----------12-11-12-------------------
A----------------------------------------
E----------------------------------------

e-------------------------------------
B-14-12-10-9--10/12-12-10-9---9---9-10
G-----------11--------------11--11----
D-------------------------------------
A-------------------------------------
E-------------------------------------

e----------------------------------------
B---10-9--------------9-10/12-10-9--9/14-
G-------11-9----------------------11-----
D-11----------12-11-12-------------------
A----------------------------------------
E----------------------------------------

e------------------------------------------
B-14-12-10-9----12-10-9--------------------
G------------11--------11-10---------------
D---------------------------12-11-9--------
A-----------------------------------12-11-9
E------------------------------------------

                     F#m          C#7          F#m
Se agigantan las quimeras de mis sueños si me pierdo
       F#7                              Bm
En el loco torbellino de las penas q sufrí
                                           F#m
Y se pierden como negras mariposas los recuerdos
                   C#7                F#m
A lo lejos de la calma q llorando te pedí

                 E7                    A
No me dejes solitario q la lucha será larga
                     E7                      A
Tengo tantas cosas triste q contarle al corazón
                     C#7                     F#m
Que mi vida se hace lenta por las penas tan amargas
         Bm            F#m         C#7           F#m
Se hace lenta y si me dejas marchare a la perdición

(La progresión de acordes sigue en todo el tema igual)

Intr.

Hoy yo se que ya no tengo mas la gloria de tus besos
Que me muero lentamente de esos besos por la sed
Hoy no ignoro q otro hombre q por el te vuelves loca
Que te abraza, que te besa, que te mima ya lo se
Pero no me importa nada por que siempre eternamente
Cuando sientan otros labios en los tuyos resquemor
Ha de verse vagamente reflejado en sus pupilas
En el sueño de otros besos y el embrujo de este amor

Intr.

Del más puro, del más bueno, del más blando del más fuerte
Del que te encontró candores y ansiedades de niñez
Del que solo harás memoria cuando sientas q la muerte
Va cambiando poco a poco tu ternura en palidez
No me dejes solitario que la lucha será larga
Tengo tantas cosas tristes que contarle al corazón
Que mi vida se hace lenta por las penas tan amargas
Se hace lenta y si me dejas marchare a la perdición
Se hace lenta y si me dejas marchare a la perdición


Tags:

Comments are closed.

Volver a Cancionero