Volver a Cancionero



Payaso (Acorde guitarra) (Letra Tablatura) cancionero Tuna (Folclore Peruano)


Payaso

Autor:

Interpretan: Cholo Berocal

TunaEspaña (Don Dudo) www.TunaEspaña.es   www.TunaEspana.com

Ritmo: Valsecito Peruano

Enlace Youtube: Pinche aqui para escuchar la cancion

524717_442583759154188_905834549_n TunaEspaña

-----------12-----12------12-10-12-10-8---------------
----------------------------------------10------------
-10-10-10------10----10------------------------------
----------------------------------------------------
----------------------------------------------------
-----------------------------------------------------

-----7-7--8-8--10-8-7-8-----------------------------
-10---------------------10-10-8-8-------------------
----------------------------------9-------------------
-----------------------------------------------------
-----------------------------------------------------

---------7--10--7------12-12----12-14-15--12--8-8------
-------9--------7------12-12--------------12--8-8-------
-7--9----------------------------------------------------
-7--9----------------------------------------------------
-------------------------------------------------------

-10-10-10--8----8--------8- ----12-12-12--54-----------------
-------------10---10-8-9--- -----------------5---------------
--------------------------- --9----------------75------------
--------------------------- --------------------------------
--------------------------- ----------------------------------
--------------------------- --------------------------------

--------1-0--5--------------------------------------------------
--2-1-2---------------------------------------------------------
--------------------------------------------------------------
-------------------------------------------------------------
--------------------------------------------------------------
-------------------0--2--4--------------------------------------

LAm               FA 
riendo voy por la vida 
SOL7                         DO 
tratando de olvidar mi pobre pena   
MI                            LAm
pero no saben que aqui dentro llevo
SOL7     DO         MI            LAm
un trite fracaso de tragedia y de dolor
SOL7              DO 
reir y reir es mi destino 
      SOL7          DO 
tanto talvez por no llorar

       MI      LAm
yo rio cual un payaso 
SOL7         DO 
que trata de fingir 
MI       LAm
el sufrimiento

Tags: , , , , , , , , , , , , , , , , , , ,

Comments are closed.

Volver a Cancionero