Volver a Cancionero



Vida (Acorde guitarra) (Letra Tablatura) cancionero Tuna (Folclore Peruano)


Vida

Autor:

Interpretan: Cholo Berocal

TunaEspaña (Don Dudo) www.TunaEspaña.es   www.TunaEspana.com

Ritmo:

Enlace Youtube: Pinche aqui para escuchar la canción

-12-8---------------------------10-------------
------10------10-10-11-12-12-12----12-10-8-7-8-
--------10-10----------------------------------
-----------------------------------------------
-----------------------------------------------
-----------------------------------------------

----------------------5------------------------
-5-8-7-5-----------5--6------------------------
---------7-6-----6-----------------------------
-------------7-7-------------------------------
-----------------------------------------------
-----------------------------------------------

-5-10-10-10--5-8-5-8-5-5----------------------------10-12-10-
-6-11-11-11--6-6-6-6-6-6---8-8-5-8-5-8-5---13-13-13----------
---------------------------9-9-6-5-5-5-5---------------------
-------------------------------------------------------------
-------------------------------------------------------------
-------------------------------------------------------------

----10-10------7----------------------------0-5-----------------
-13-------13-----10-9-6-5-3---------------1---------------------
----------------------------5-4---2-2-1-2----------------------
-------------------------------------------------------------
-------------------------------------------------------------
---------------------------------------------------0-2-4-------

LAm               REm
vida amada de mis sueños
SOL7              DO 
eres el angel que yo adoro
LA7                REm
vida lucero de mis noches
                  LAm
que alumbras mi camino
               LAm
de triste soledad
SOL7                    DO 
escucha las tovas de mi alma
    MI                    LAm LA7
que canto con todo el corazon
   REm                 LAm
mi vida casi dormir no puedo
                SOL  FA               DO 
me paso noche y dia pensando en tu querer
REm                       LAm
por eso te ruego que me escuches
             MI                       LAm
a este amor humilde de este pobre trovador

Tags: , , , , , , , , , , , , , , , , , , ,

Comments are closed.

Volver a Cancionero