Volver a Cancionero



Clavelitos, (Bandurria) ,Acorde Guitarra, Letra Tabladura, Cancionero Tuna


Clavelitos

“Dame el Clavel”

 don-dudo-carlos-espinosa-tunaespana-desfile-de-la-hispanidad-nueva-york-01-80

Autor:Letra de  Federico Galindo Llado y música Genaro Monreal Lacosta; partitura original 1949

Interpretan: TunaEspaña

Tuna España (Don Dudo)     www.TunaEspana.com    www.TunaEspaña.es

Ritmo: vals

España

La letra de una de las más famosas canciones que hizo suya la Universidad española, como fue Dame el Clavelmás conocida como Clavelitoses obra de Federico Galindo Lladó y a la que Genaro Monreal Lacosta le puso música, siendo compuesta en 1949. La primera grabación de esta pieza por parte de una tuna, es igualmente la primera grabación en vinilo hecha por una tuna: Cuando los tunos pasan de la Tuna Universitaria de Madrid de 1958. Sobre la citada grabación, recogida en Cuando los tunos pasan, Referencia: PHILIPS 421 282 PE, Depósito Legal: Barcelona 1958, que contiene: Clavelitos (F. Galindo-G.Monreal); La tuna pasa (Luis Araque); Ronda del SilbiditoCuando la aurora y Carrascosa (J.Texidor-M.Texidor), es un disco que contiene 5 temas, en lugar de los 4 que eran habituales en los discos denominados Extended Play ó E.P. Se grabó por primera vez la canción que posteriormente sería emblemática de las Tunas, Clavelitos, de los autores F. Galindo y G.Monreal, aunque en la portada que se publicó inicialmente, así como en la etiqueta del disco, figura con el título de Dame un clavel, y la cantó el Médico Psiquiatra Antonio Albadalejo Herrero, apodado en la Tuna como Tano”, a quien correspondió el honor de llevarla por primera vez al microsurco, y que andando el tiempo sería el primer Presidente de la Asociación de antiguos tunos de la Universidad de Madrid, que acoge en su seno a la Orquesta de pulso y púa de la Universidad Complutense de Madrid. La tuna que grabó este microsurco, bajo el nombre de Estudiantina de Madrid, era conocida en los ambientes universitarios de la época como Tuna de Distrito, por estar formada por componentes de diferentes Facultades y Escuelas Técnicas del Distrito Universitario de Madrid, dirigida por Santiago López Hernández, Santi”, que sería posteriormente, junto a su hermano Julián, uno de Los Gemeloshabituales compañeros artísticos de figuras como María Dolores Pradera, Nati Mistral, María Alejandra, Los HH, Raphael, etc., y que lamentablemente desde Agosto de 1993, no se encuentra ya con nosotros. En la misma cara del disco de Clavelitos, se encuentra otro tema ya mítico, La tuna pasa, del genial compositor Luis Araque, que sería la canción que según el cómputo de la Sociedad General de Autores, fue la que obtuvo mayor recaudación por derechos de autor en el año de 1955. En la otra cara del disco se encuentran dos temas populares del repertorio tunantesco, Ronda del Silbidito, también conocida como El Pío Pío, y Cuando la aurora, ó La aurora simplemente, junto a un clásico pasacalle de Tuna, Carrascosa, de J.Texidor y M.Texidor.

14 de Febrero de 2014 – San Valentín. (Día de los enamorados)
Ramón  Gálvez

http://www.paginadeunecijano.com/publicaciones/rfg/Federico_Galindo_Llado.pdf

Me comenta nuestro querido Don Botas (Rafa Suárez, Tuno Medicina de La Complutense):La cantó como nadie, el compañero psiquiatra Dr. Albadalejo, “Tano”. En esa Tuna de Distrito de Madrid, andaban Los Gemelos, el Ingeniero de Caminos Valentín Martín Jadraque, que ya va por 18 tomos de arreglos solfo-cifrados para pulso y púa, su hermano Luis, cardiólogo……

 000 12631271_1186713228025325_1018550756536809868_n dism

 

 

Am   E7          Am
Mocita dame el clavel
E7
dame el clavel de tu boca

para eso no hay que tener
Dm  E7      Am
mucha vergüenza ni poca.

G7                  C
yo te daré un cascabel
G7        C
te lo prometo mocita
E7                Am
si tu me das esa miel
E7           A
que llevas en la boquita.

A
Clavelitos, clavelitos,
Bbd     E7
clavelitos de mi corazón
Bm         E7
hoy te traigo, clavelitos
Bm      E7             A
colorados igual que un fresón.

A
Si algún día, clavelitos
A7              D
no lograra poderte traer,
A   F#7
no te creas que ya no te quiero
Bm        E7      A
es que no te los pude coger.

Am      E7         Am
La tarde que a media luz
E7
vi tu boquita de guinda,

yo no he visto en Santa Cruz
Dm   E7      Am
otra boquita más linda.

G7                    C
Y luego al ver el clavel
G7           C
que llevabas en el pelo
E7              Am
mirándolo creí ver
E7         A
un pedacito de cielo.

.

.

01, TunaEspaña, Cancionero tuna, Santiago compostela, dism, don dudo, carlos Espinosa Celdran, don dudo.Espero les guste este Clavelitos de la Orquesta Aragón. Orquesta popular cubana de charanga, fundada en Cienfuegos, en 1939 por Orestes Aragón Cantero con el nombre de Rítmica 39; luego se llamaría Rítmica Aragón y finalmente Orquesta Aragón.

Clavelitos a quien le doy claveles
Clavelitos para los churumbeles
Clavelitos que los doy con los ojos cerraos
Y los traigo en el pecho a precio modesto bordaos y pintaos

Clavelitos de la tierra dorada
Clavelitos que vienen de Granada
Clavelitos
Que los traigo yo aquí para ti
Y que tienen la esencia, presencia y potencia
Que usted vera en mi

Clavelitos
Que los traigo bonitos

A mi novia los tengo reventones chicle
Porque tienen muchísimo quinqué
Pa’ robar corazones y ole
Y enseñarles la esencia, presencia y potencia
Que ya sabe usted

Si tú me quieres mi niña cariño
Yo te daré un clavelito bonito
Y veras que bien marchamos
Y estamos juntos en un rinconcito

Si tú me quieres serrana del alma
Yo te quiero más a ti mi cariño
Y todos los clavelitos bonitos
Todos serán para ti
Para ti, para ti.

 

01,TunaEspaña, Inmaculada Sevilla, DonDudo,puente, dismi, musica Tuna, Cancionero Tuna, DonDudo

INTRODUCCIÓN: 60, 64, 52, 60, 64, 52, 50, 53, 42, 50, 52, 53, Dm, Mi 7, 50, 53, 42, 50, 63, 61, 60, 64, 50,
E7, 50, 53, 42, Am, Dm, E7, 50, 53, 42

CIFRADOS

|--------------------------0-3-3-2-2-0-0-------------------------------------------------
|--0-1-0-1-0---0-1-0-1-0-----------------3-3-1-0-------0—0-1-0-------0---0-1-0-1-0---0-1-
|------------------------------------------------3-1-3---------3-1-3---------------------
|----------------------------------------------------------------------------------------
|
|
|----------------------------------------------------------------------------------------
|--------------------------0-0-1-1-1-1-1-0-0---------------------------------------------
|--1-3-1-3-0---0-0-0-0-1---------------------3-1-0---0-1-1-3-1-0---0-1---1-3-1-3-0---0-0-
|--------------------------------------------------3-------------3-----------------------

|----------0-3-3-2-2-0-0------------------------0---
|--0-1-0-----------------3-3-1-0-------------0------
|--------------------------------3-1-0----1---------
|--------------------------------------3------------
|
|
|----------0-0-1-1-1-1-1-0-0--------------------0---
|--0-0-1---------------------3-1-0-----------1------
|----------------------------------3-2-3--3---------

Mocita dame_un clavel, dame_el clavel de tu boca. Para_eso no_hay que tener mucha
|----3-2--0--------2-0----------------------------------5--3---2------0--3-2---2---------
|--0---------4------------0--0-----0-1---3--1--0-----0----------------------------4------
|------------------------------------------------3---------------------------------------
|
|
|----------------------------------------------------------------------------------------
|----0-0--1--0---------------------------0--------------1--0-------------0--------0------
|--1---------------3-1----1--1-----1-3------3--1-0---0---------3------1----3---3---------

vergüenza ni poca. Yo te daré_un cascabel, te lo prometo mocita, si tú me das esa miel
|-----------------------------------5—2------------------5--2-0-----------------2--------
|--0---1--0-----1-0---3--3--3--3---------3----3--3---3-3--------3---0--0--0--0----4---0—-
|------------3---------------------------------------------------------------------------
|
|
|----------------------------------------------------------------------------------------
|-----------------------------------3--1-0----0--0-------3--1-1-0------------0----0------
|--0---3--1--0--3-1---3--3--3--3---------------------3-3------------0--1--3-----3-----1--

que llevas en la boquita.
|---0---3-2--5------2--2-0-----
|----------------4-------------
|------------------------------
|
|
|-------0----2----------------
|---0-----4------0------------
|-------------------3--3-2----

Clavelitos, clavelitos, clavelitos de mi corazón. Hoy te traigo clavelitos colorados
|---------------0-0-0-------4-4-4-2---0---------------------------------------2-2-2-0----
|---0-0-0-------------0------------------4--2-0---------------------4-4-4-0--------------
|---------2-------------------------------------3----3---3---3—0-------------------------
|
|
|---------------------------0-0-0--------------------------------------------------------
|---------------0-0-0-------------4--2---0--------------------------0-0-0-----4-4-4-2----
|---2-2-2-------------2---------------------3-2-0----0---0---0--0---------0--------------
|---------3------------------------------------------------------------------------------

igual que_un fresón. Si_algún dí_a clavelitos no lograra poderte tra_er, no te cre_as
|-------------------------------------0-0-0-----4--4--4-2--0-0--2---4-5----5--5---5------
|-4-2------0-------------0---0---0-----------0---------------------------------------2---
|----------------3-2---------------2-----------------------------------------------------
|
|
|------------------------------------------------0--0--0---------------------------------
|-0------------------------------------0-0-0-------------4--2-0------0-2----2--2---2-----
|----3-----2-----0-------2---2---2-----------2-------------------3-------------------3---
|------------------3---------------3-----------------------------------------------------

que ya no te quiero, es que no te los pude coger.
|---------4--4---4-----2----2--2--0-------------0-----
|---2--2------------0----------------4---4-2--4-------
|-----------------------------------------------------
|
|
|----------------------------------------------------
|---------0--0----0---------------0--0---0----0------
|---3--3------------2--3----3--3-----------3----2----

TunaEspaña-Cancionero-tuna-Don-Dudo, musica tuna

.

Genaro Monreal Genaro Monreal Lacosta (1894-1974): Extraordinario compositor autor de la  música de Clavelitos, entre sus composiciones tenemos:

¡Ay mi sombrero!
Campanera
El gran Reverte
Lerele
Me pedías un beso (Una lágrima)
No me tires indiré
Pasodoble, te quiero
Patio Banderas
Porque te quiero
Puentecito
Serva la Barí
Tani.

FEDERICO GALINDO LLADO

Federico Galindo LLado ( 1904-1967),

Federico Galindo Llado, famoso dibujante y que adquirió mayor popularidad, por ser el autor de la letra de “Clavelitos”.  Fue dibujante de Buen Humor, Gracia y Justicia (fundada por Sileno en 1921), Gutiérrez (Semanario español de humorismo, fundado en 7 de Mayo de 1927, por García López K-Hito, llegó a superar los 20.000 ejemplares de tirada y dejó de publicarse en 1935), Estampa, Bromas y veras y el Ya, 1930-36; autor teatral, letrista y director de cine; redactor y dibujante del Ya, 1940-80 y Dígame 1941-71;colaborador de El Noticiero Universal, Fotos, Gol, La Codorniz, Surco, Tarea, Primer Plano, Letras, Misión, la Agencia Logos y RNE; en sus dibujos firmaba como: “Galindo”.

  http://www.paginadeunecijano.com/publicaciones/rfg/Federico_Galindo_Llado.pdf

don-dudo-carlos-espinosa-tunaespana-desfile-de-la-hispanidad-nueva-york10-7575

.

.TunaEspaña, Vaticano, TunaEspaña, Don Dudo,2, Juntamento

.

 

Tags: , , , , , , , , ,

Leave a Reply

Volver a Cancionero