Volver a Cancionero



Las Cintas de mi capa,Bandurria,Acorde Guitarra, Letra Tabladura, Cancionero Tuna


.

Las Cintas de mi capa

Autor: Enrique Villellas / Antonio Villena

TunaEspaña, Tuno Mas Antiguo de España,Don Dudo, musica Tuna, canciones de Tuna

Interpretan: TunaEspaña, Alfredo Kraus

Tuna España (Don Dudo)     www.TunaEspana.com    www.TunaEspaña.es

Ritmo: Pasacalles

España

 

 

Am                       E7
Cual amantes van las olas a besar
Am
las arenas de la playa con fervor,
E7
así van los besos míos a buscar
Am
de la playa de tus labios el calor.

E7
Si del fondo de la mina es el metal,
Am  A7
y del fondo de los mares el coral,
Dm G7          C           F
de lo más hondo del alma me bro
B7        E7            Am    G / F / E7 / F / E7
el cariño o que tengo yo.

A                           Bbd          E7
Enredándose en el viento van las cintas de mi capa,
Bm   E7                  A
y cantando a coro dicen  quiéreme niña del alma.
A7            D
Con las cintas de mi capa, de mi capa estudiantil
A            F#7         Bm   E7
y un repique de campanas, y un repique de campanas
A E7 A
cuando yo te rondo a ti.

Am                     E7
No preguntes cuando yo te cono,
Am
ni averigües las razones del querer,
E7
sólo se que mis amores puse en ti,
Am
el porqué no lo sabría responder.

E7
Para mi no cuenta tiempo ni razón
Am A7
de porqué te quiero tanto, corazón,
Dm G7         C         F
por tu amor a todas horas vivi,
B7            E7           Am    G / F / E7 / F / E7
sin tu amor cariño mío mori.

INTRODUCCIÓN: Dm, G7, C, F, B7, E7, Am, A7, Dm, G7, C, F, B7, E7, Am, E7, Am

TunaEspaña, concierto Teatro, 07, dismi

CIFRADOS

|--7-7-7-8-7-5---5-5-5-7-5-3---3-3-3-5-3-2---5-3-2-3-5-7---7-7-7-8-7-5---5-5-5-7-5-3-----
|----------------------------------------------------------------------------------------
|----------------------------------------------------------------------------------------
|
|
|--3-3-3-5-3-2---2-2-2-3-2-0---0-0-0-2-0-----2-0---0-2-3---3-3-3-5-3-2---2-2-2-3-2-0-----
|----------------------------------------4-------4---------------------------------------
|----------------------------------------------------------------------------------------

|--3-3-3-5-3-2---5-3-2-0---0-----0---
|------------------------4-----0-----
|------------------------------------
|
|
|--0-0-0-2-0-----2-0-------0-----0---
|------------4-------4-2-4-----0-----
|------------------------------------

Cuál amantes van las olas a besar las arenas de la playa con fervor, así van los besos
|--------0--0---0---0--0-0-----0-2------0-2-2---2--2---3-2--0------0---3-2--3---2---0----
|--0---0--------------------4--------4--------------------------4---------------------3--
|----------------------------------------------------------------------------------------
|
|
|----------------------------------------------------------------------0----0------------
|--0---0-----------------------------------------------0-----------------3------3---1-0--
|--------1--1---1---1--1-1--0--1-3---0--1-3-3---3--3-----3--1---0--1---------------------
|----------------------------------------------------------------------------------------

mí_os a buscar, de la playa de tus labios el calor. Si del fondo de la mina_es el metal
|------------------2--0---2-0----------------------------------0-0--0--0--0--0-------0-2-
|--1-0-------------------------3--1---0-----------0----0--0----------------------4-------
|-------3--1--3-------------------------3---1---3----------------------------------------
|
|
|----------------------------------------------------------------------------------------
|------------------3--1---3-1--0------------------0----0--0------------------------------
|--3-1--0-----0-------------------3---1-0---1---3--------------1-1--1--1--1--1---0---1-3-
|----------3-----------------------------------------------------------------------------

y del fondo de los mares el coral, de lo más hondo del alma me brotó el cariño mí_o
|----0---2--2--2--2---3-2--3---5-7----8--7--5---8--7--5--7--5--3---2-0-5---3-2-3--2-0----
|-4--------------------------------------------------------------------------------------
|----------------------------------------------------------------------------------------
|
|
|----------------------------------------------------------------------2---0---0---------
|---------------------0----------0-------------------------------------------4----4-1----
|-0--1---3--3--3--3-----3--1---3------3--1--0---3--1--0--1--0----------0------------0----
|--------------------------------------------------------------3---2-3-----3-2-3--2------

que te tengo yo.
|------0--3--2--0----0-2-3-0-5---0-2-3-0-2---3-2-0---------7-----
|---4----------------------------------------------3-1-0-----0---
|----------------------------------------------------------------
|
|
|-----------------------------------------------------------------
|---0-------------------------------------------------------0-0---
|---0--3--1--0---------0-1---3-----0-1---0---1-0------------------
|---------------3----3-----3-----3-----3---------3-1--------------
|----------------------------------------------------4-3----------

Y_enredándose_en el viento van las cintas de mi capa, y cantando_a coro dicen quiéreme
|--------0--0--0------------------0--------------------------------------------------0---
|------0-----------4---4---2--4-------4--2---0-------0-----0--4---4---4-2--2-0----4----4-
|--2--------------------------------------------2--3----3--------------------------------
|
|
|----------------------------------------------------------------------------------------
|-----------------------------0---2---0-----------------------0---0---0-----------0--2-0-
|------2-2--2--2---0---0-----------------3---2-----0-2--0--2------------3--3-0-----------
|--3-----------------------3--------------------3----------------------------------------

niña del alma. Son las cintas de mi capa, de mi capa_estudiantil, y_un repique de
|-------------------------0--0---0-----------0--2--4--0---2-4---5----2----4-5--5--5------
|--2-0----------------0-------------4--4-2-----------------------------------------------
|-------3--3--2---2----------------------------------------------------------------------
|
|
|----------------------------------------------------------------------------------------
|--------------------------------------------------0--------0---2---------0-2--2--2------
|--3-2--0--0----------2---2--2---2--0--0-----2--3-----2---3----------3-------------------
|-------------3---3----------------------3-----------------------------------------------

campanas, y_un repique de campanas cuando yo te rondo_a ti.
|--4--2-0----0----2-4--4--4--2--0---------0--2--2--0-------0-----0---
|---------------------------------4---4----------------4-------0-----
|--------------------------------------------------------------------
|
|
|--------------------------------------------------------------------
|--0----------------0--0--0--------------------------------------0---
|-----3-2----2----3----------3--2-0---0---2--3--3--2---0---2---0-2---

01, TunaEspaña, Cancionero tuna, Santiago compostela, dism, don dudo, carlos Espinosa Celdran, Las cintas de mi capa

Tags: , , , , , , , , , , , , , , ,

Leave a Reply

Volver a Cancionero