Volver a Cancionero



Dos palomitas,Acorde Guitarra, Letra Tabladura, Cancionero Tuna, Popular


 Dos palomitas

don-dudo-carlos-espinosa-tunaespana-desfile-de-la-hispanidad-nueva-york-01-75

Autor:  el extraordinario compositor Boliviano Julio Martínez Arteaga

Interpretan: TunaEspaña,Quilapayun, Los Calchakis

Tuna España (Don Dudo)     www.TunaEspana.com    www.TunaEspaña.es

Ritmo: yaraví tradicional en tiempo de huayno

Bolivia

 

Em               G           C D7 G
Dos palomitas se lamentaban llorando,
Em             G B7 Em
una a la otra se consolaban diciendo.
Em                 G              C D7 G
Quien te ha cortado tus bellas alas paloma,
Em              G  B7 Em
algún falsario ha sorprendido tu vuelo.

C   D7  G   C D7 G
¡AyayayPaloma.
Em              G  B7 Em
algún falsario ha sorprendido tu vuelo.

 

CIFRADOS

Dos palomitas se lamentaban llorando una_a la otra se consolaban diciendo. Quien te_ha
|------------0---2--2-0--2-2----7-5--2-2--7---5-2--0------------0---2-6---7--------------
|--3---3-2-3------------------------------------------3--3--2-3----------------3-----3---
|----------------------------------------------------------------------------------------
|
|
|-------------------------------3-2-------3---2------------------------------------------
|--0---0---0-2---3--3-2--3-3---------3-3--------3--2--0--0----0-2---3-2---0----0-----0---
|--------4--------------------------------------------------4----------------------------

cortado tus bellas alas paloma algún falsario ha sorprendido tu vuelo. Ay ay ay paloma
|-------0--2---2--0--2-2---7-5-2-2--7---5--2-0---------------0--2--6--7--7--5--2---7-5-2-
|--2--3------------------------------------------3--3---2--3-----------------------------
|----------------------------------------------------------------------------------------
|
|
|--------------------------3-2------3---2--------------------------------3--2------3-2---
|-----0-2--3---3--2--3-3-------3-3---------3-2---0--0------0-2--3--2--0--------3-------3-
|--4----------------------------------------------------4--------------------------------

algún falsario ha sorprendido tu vuelo.
|-2--7---5--2-0---------------0--2--6--7----
|-----------------3--3---2--3---------------
|-------------------------------------------
|
|
|----3---2----------------------------------
|-3---------3-2---0--0------0-2--3--2--3----
|------------------------4------------------


.

.

.

.

don-dudo-carlos-espinosa-tunaespana-desfile-de-la-hispanidad-nueva-york-02-75

Tags: , , , ,

Leave a Reply

Volver a Cancionero