Volver a Cancionero



Aguinaldo Cagüeño ,Acorde Guitarra, Letra Tabladura, Cancionero Tuna,Cuatro Puertorriqueño, Musica Jibara


Aguinaldo Cagüeño

Autor:

Interpretan: TunaEspaña

TunaEspaña (Don Dudo) www.TunaEspaña.es   www.TunaEspana.com

Ritmo:

tunaEspaña. Don Incondicional, Cancionero tuna.

TunaEspaña, Don Incondicional Nuestro querido Hermano “Boricua” D. Incondicional

Tono en Sol
Recordar Afinacion del cuatro.
1ra - 2da - 3ra - 4ta - 5ta
SOL-G RE-D  LA-A  MI-E  SI-B

Intro
                                              x2
G|-------------4-5-7-4---4-7-5-------5-4--------|
D|-------4-5-7---------5-------7-4-7-----5-----*|
A|---5-7----------------------------------------|
E|---------------------------------------------*|
B|----------------------------------------------|

     (escala)                        (RE)             (SOL)        x2                 
G|---0-------------------------------------------------0---------|
D|-----2-4-0-2---0-----------------------0-----------0----------*|
A|-------------3---2-3-0-2---0---------0---3-2-0---2-------------|
E|-------------------------3---3-2---2-----------3--------------*|
B|---------------------------------3-----------------------------|

Acompañamiento(el trovador entra) 

                                     (SOL)
G|---2-----2--0-----0----------------------0--------|
D|-----2--------0----------0-4-0---------0----------|
A|-------3--------2----0-3-------3-0---2------------|
E|-----------------------------------3--------------|
B|--------------------------------------------------|

Adorno

     (DO)         (SOL)      (RE)       (SOL)
G|-----0---0-----------------------------------0-------|
D|-------2---2------0--0---------------------0---------|
A|---3---------3-----2--2------0---0-------2-----------|
E|----------------3-------3------2--2----3-------------|
B|---------------------------3--------3----------------|

Pequeño Solo

G|-------0-----0------------------------------------------|
D|---1-2---1-2--------0-----0-------------------0-----0---|
A|----------------1-2---1-2--------0-----0--1-2---1-2-----|
E|-----------------------------1-2---1-2------------------|
B|--------------------------------------------------------| 

G|-------0-----0---------------------2-5-2---------------0----|
D|---1-2---1-2--------0-----0--2-3-4-------4-0---------0------|
A|----------------1-2---1-2--------------------3-0---2--------|
E|-------------------------------------------------3----------|
B|------------------------------------------------------------|                       

Final

G|-------2---0---------------------0---------|
D|-----2---4---0--------0-0--0-2-4-----------|
A|---3------------0-2-3----------------------|
E|-------------------------------------------|
B|-------------------------------------------|

                          Tuna-España-Mallorca-18-Mayo-2013-Don-Setas-Dism

Tags: , , , , , , , , , , , , , , , , , , , , , , , ,

Comments are closed.

Volver a Cancionero