Volver a Cancionero



Aguinaldo Isabelino (cancionero Tuna) Acordes Tablatura Cuatro Puertorriqueño, Musica Jibara


Aguinaldo Isabelino

Autor:

Interpretan: TunaEspaña

TunaEspaña (Don Dudo) www.TunaEspaña.es   www.TunaEspana.com

Ritmo:

Enlace Youtube: Pinche Aqui para escuchar la canción

01 35 Tuna España

Aguinaldo Isabelino (La-)
Afinacion Cuatro Puertorriqueño
1ra - 2da - 3ra - 4ta - 5ta
SOL-G RE-D  LA-A  MI-E  SI-B

  ParteI
G||--------0-----------------------0------------------------|
D||*-----2---3-2------0-3-2------2---3-2------0-3-2---------|
A||----3---------2--2-------0--3---------2--2-------0-------|
E||*--------------------------------------------------------|
B||---------------------------------------------------------|

G|---------------------------------------------------------||
D|-----2------------0-3-2------2------------0-3-2---------*||
A|---3---3-0------2-------0--3---3-0------2-------0--------||
E|-----------0-4---------------------0-4------------------*||
B|---------------------------------------------------------||

  ParteII
G||------2-2-1-2-----2-2-1-----2-2-1-4-1-------------------||
D||*---2---------3-3-------2-2-----------2-0--------------*||
A||------------------------------------------3-2-0---------||
E||*------------------------------------------------------*||
B||--------------------------------------------------------||

Tags: , , , , , , , , , , , , , , , , , , , , , , , ,

Comments are closed.

Volver a Cancionero