Volver a Cancionero



Alma de veterano (cancionero Tuna) Acordes Tablatura Cuatro Puertorriqueño, Musica Jibara


Alma de veterano

Autor: Maso Rivera

Interpretan: TunaEspaña

TunaEspaña (Don Dudo) www.TunaEspaña.es   www.TunaEspana.com

Ritmo:

Enlace Youtube: Pinche aqui para escuchar la cancion

00 TunaEspaña Real Casino Murcia

Intro

G|-------6-----6---6-----6---6-------6---------6-----6---6---------|
D|-----7---7-----7---7-----7---7---7---7-----7---7---------7-------|
A|---7-------7---------7---------7---------7-------7---7-----7-----|
E|-----------------------------------------------------------------|
B|-----------------------------------------------------------------|

G|---6---6---------------------------------------------------------|
D|-----7---7-7-6-4-------------------------------------------------|
A|-----------------7-5-4-------------------------------------------|
E|-----------------------------------------------------------------|
B|-----------------------------------------------------------------|

Parte 1

G|---9-9-9-6--------11-6-9-7--7-7-7-7-7-7-7--7-10-9-7-6------------|
D|-----------7-5--7------------------------------------------------|
A|-----------------------------------------------------------------|
E|-----------------------------------------------------------------|
B|-----------------------------------------------------------------|

                                                                x2
G|---6-6-6-6----------6-9-7--11-9-7-6----------9-6-----------------|
D|-----------9-8--8-9-----------------9-7-6--9-----9-7------------*|
A|-----------------------------------------------------------------|
E|----------------------------------------------------------------*|
B|-----------------------------------------------------------------| 

Parte 2

G|-----------6-9--9-8-9-11--9-7-6-9-7----------6-9--9-8-9-11-------|
D|---------7---------------------------------7---------------------|
A|-----4-7-------------------------------4-7-----------------------|
E|---5---------------------------------5---------------------------|
B|-----------------------------------------------------------------|  

G|---9-7-6-9-7--6/7-7-7-7-7-7--7-9/10-9-7-6--6-6-6-6---------------|
D|---------------------------------------------------9-8-----------|
A|-----------------------------------------------------------------|
E|-----------------------------------------------------------------|
B|-----------------------------------------------------------------| 

                                                         x2   
G|-------6-9-7--11-9-7-6--------|---9-6---------------------|
D|-----8-----------------9-7-6--|-9-----9-7----9-6---------*|
A|---9--------------------------|------------9-----9-7------|
E|------------------------------|--------------------------*|
B|------------------------------|---------------------------|  

Tags: , , , , , , , , , , , , , , , , , , , , , , , ,

Comments are closed.

Volver a Cancionero