Volver a Cancionero



Dame la mano paloma,Acorde Guitarra, Letra Tabladura, Cancionero Tuna, Popular, Cancionero Basico


Dame la mano paloma

Autor: Juan A. Colón

Interpretan: TunaEspaña

TunaEspaña (Don Dudo) www.TunaEspaña.es   www.TunaEspana.com

Ritmo: Musica Navideña Boricua


00 TunaEspaña Ronda 01

.

<1>
[A]Dame la mano pa[E]loma, (pa' que...)
para subir a tu [A]nido.

[A]Dame la mano pa[E]loma, (pa' que...)
para subir a tu [A]nido.

[D]Pues me han dicho que estas [A]sola,
que me han [F#m]dicho que estas [Bm]sola,
y a acompa[E]ñarte he ve[A]nido, oh [A7]oh!

[D]Pues me han dicho que estas [A]sola,
que me han [F#m]dicho que estas [Bm]sola,
y a acompa[E]ñarte he ve[A]nido, oh [A7]oh!

<2>
En el pueblito de ciales,
hay una piedra bendita.

En el pueblito de ciales,
hay una piedra bendita.

Que la vieja que se siente,
que la vieja que se siente,
amanece mas bonita, ah ah!

Que la vieja que se siente,
que la vieja que se siente,
amanece mas bonita, ah ah!


<3>
Cuando a mi me dijeron,
que tu ya no me quiras.

Cuando a mi me dijeron,
que tu ya no me quiras.

Hasta la gata de casa,
hasta la gata de casa,
me miraba y se reia, ah ah!.

Hasta la gata de casa,
hasta la gata de casa,
me miraba y se reia, ah ah!.

.

G|-----------0-----------------0-2-0------------------------------------|
D|---------0----2-4-0-----4-4---------4-2-0-----------------------------|
A|------2--------------3------------------------------------------------|
E|---3------------------------------------------------------------------|
B|----------------------------------------------------------------------|

G|-----------0-----------------0-2-0------------------------------------|
D|---------0----2-4-0-----4-4---------4-2-0-2-3-------------------------|
A|------2--------------3------------------------------------------------|
E|---3------------------------------------------------------------------|
B|----------------------------------------------------------------------|

G|--------0-------------------------------------------------------------|
D|---2-2-2----4-2-0-0-0-0-0-4-2-0------------2-0-0-2-0-2-3--------------|
A|---------------------------------3-3-3-3------------------------------|
E|----------------------------------------------------------------------|
B|----------------------------------------------------------------------|

G|--------0-------------------------------------------------------------|
D|---2-2-2----4-2-0-0-0-0-0-4-2-0------------2-0-0----------------------|
A|---------------------------------3-3-3-3----------3-2-----------------|
E|----------------------------------------------------------------------|
B|----------------------------------------------------------------------|

G|-----------0-----------------0-2-0------------------------------------|
D|---------0----2-4-0-----4-4---------4-2-0-----------------------------|
A|------2--------------3------------------------------------------------|
E|---3------------------------------------------------------------------|
B|----------------------------------------------------------------------|

CORO
DAME LA MANO PALOMA,PARA SUBIR A TU NIDO
DAME LA MANO PALOMA,PARA SUBIR A TU NIDO

QUE ME HAN DICHO QUE ESTAS SOLA
QUE ME HAN DICHO QUE ESTAS SOLA
Y A COMPAÑARTE HE VENIDO(2)

Tags: , , , , , , , , , , , , , , , , , , , , , , , , , , ,

Comments are closed.

Volver a Cancionero