Volver a Cancionero



Danza el coqui (cancionero Tuna) Acordes Tablatura Cuatro Puertorriqueño, Musica Jibara


Danza el coqui

Autor:

Interpretan: TunaEspaña

TunaEspaña (Don Dudo) www.TunaEspaña.es   www.TunaEspana.com

Ritmo: Danza

Enlace Youtube: Pinche aqui para escuchar la canción

00 TunaEspaña TunaEspaña 2

DANZA EL COQUI - INTRO

G|-----2-6-4-2-1-----------------0---0-----------------------------|
D|---2-----------4-3-2---1-2-3-4---4---4-2-0---2-0-----------------|
A|-------------------------------------------4---------------------|
E|-----------------------------------------------------------------|
B|-----------------------------------------------------------------|

                                                Repite |  [ACORDE]
                                                       |  
G|---4-2-1-1-------1-2-------1-------------------------|-----9-----|
D|-----------4-2-4-------3-4---4-0---4-2-----2-0-------|-----6-----|
A|---------------------------------2-----4-0-----2---0-|-----7-----|
E|-------------------------------------------------4---|-----0-----|
B|-----------------------------------------------------|-----------|

CUERPO DE LA DANZA

G|---------------9-------------------9------------------9----------|
D|-----------------------------------------------------------------|
A|-------------7----------0-0-0---7------------------7-------------|
E|---0---0-2-0----------0-------4----------------0-----------------|
B|-----4--------------2--------------------3-2-3---3---------------|

G|------------------9----------------9----------------------11-----|
D|-----------------------------------------------------------------|
A|------2-2-2-0--7----------------7-------2---0--------0--9--------|
E|----0-----------------0---0-2-0-------3---2---3---0--------------|
B|--3---------------------4-----------------------4----------------| 

                              REPITE CUERPO DE LA DANZA
G|---------------------9------------9-------9----9-----------------|
D|-----------------------------------------------------------------|
A|---------2-0-0----7------------7-------0----7----0---------------|
E|-----2-4-------0----------4-0--------0---------------------------|
B|---3-------------------------------------------------------------|  

2DA PARTE

G|-------------------1-1----------6-4-2-2-1-1----------------------|
D|-----------------------4-4-3-2-----------------------------------|
A|----4-4-4-4-3-2-------------------------------2-0----------------|
E|--------------------------------------------------2-2-0-0--------|
B|-----------------------------------------------------------------|  

G|-----------------9----------------------11-----------------------|
D|-----------------------------------------------------------------|
A|--------------7-------2---0--------0--9--------------------------|
E|----0---0-2-0-------3---2---3---0--------------------------------|
B|------4-----------------------4----------------------------------|

                                    REPITE 2DA PARTE
G|---------------------9------------9-------9----9-----------------|
D|-----------------------------------------------------------------|
A|---------2-0-0----7------------7-------0----7----0---------------|
E|-----2-4-------0----------4-0--------0---------------------------|
B|---3-------------------------------------------------------------|

Tags: , , , , , , , , , , , , , , , , , , , , , , ,

Comments are closed.

Volver a Cancionero