Volver a Cancionero



Danza Violeta (cancionero Tuna) Acordes Tablatura Cuatro Puertorriqueño, Musica Jibara


Danza Violeta

Autor:

Interpretan: TunaEspaña

TunaEspaña (Don Dudo) www.TunaEspaña.es   www.TunaEspana.com

Ritmo:Danza

Enlace Youtube: Pinche aqui para escuchar la cancion

01 TunaEspaña Tunas de España 02

TONO SOL

Introducción

G|---------|-4-5-4-2-1-4-2-2---2-|-0-0---------|-------------|--------|
D|-------0-|-----------------2---|-----4-4---4-|-2-2-0-0---0-|------0-|
A|-2-3-4---|---------------------|---------3---|---------4---|-2-3-4--|
E|---------|---------------------|-------------|-------------|--------|
B|---------|---------------------|-------------|-------------|--------|

Rasgado RE                                          
G|--4-5-4-2-1-4-2---4-4-2---2-2-0---------------|-----2---------------|
D|----------------2-------2---------2-0---------|---------------------|
A|--------------------------------2-----0-3-2---|-----3---------------|
E|--------------------------------------------3-|-----2---------------|
B|----------------------------------------------|---------------------|

Melodía 1ra parte

G|----------|---0-------|-----0---|---------|---------|-4-5-1-4-2-----|
D|--------0-|-2---2-4---|-2-4---4-|---0-2-0-|-------0-|-----------2---|
A|--2-3-4---|---------3-|---------|-3-------|-2-3-4---|---------------|
E|----------|-----------|---------|---------|---------|---------------|
B|----------|-----------|---------|---------|---------|---------------|

                           2da parte

G|--2-0---0---|----------||-4-4-4-4---|-2-0---------|-0-0-2-0---------|
D|------4---0-|-2-------*||---------4-|-----1-4-2---|---------4-------|
A|------------|---3-0----||-----------|-----------2-|-----------------|
E|------------|-------3-*||-----------|-------------|-----------------|
B|------------|----------||-----------|-------------|-----------------| 

G|----------|-4-4-4-4-2---|-2-2-2-2-0---|-0-0-2-0---|-----------------|
D|--2-1-4-2-|-------------|-------------|---------4-|-2-1-4-2---------|
A|----------|-----------3-|-----------2-|-----------|-----------------|
E|----------|-------------|-------------|-----------|-----------------|
B|----------|-------------|-------------|-----------|-----------------|  

3ra parte

G|--1-2-4-1-2---1---|---------1-1-4-4-5-6-1-2-|-----------------------|
D|------------4---2-|-----3-3-----------------|-4-2---2-1-------------|
A|------------------|-4-4---------------------|-----4-----------------|
E|------------------|-------------------------|-----------------------|
B|------------------|-------------------------|-----------------------|

G|--------6-4-3-4-1-|-2-1---1---|------------------------------------||
D|----1-4-----------|-----4---2-|-4-2-1-2---------------------------*||
A|--2---------------|-----------|------------------------------------||
E|------------------|-----------|-----------------------------------*||
B|------------------|-----------|------------------------------------||

Finalizar con la segunda parte luego de la repetición.
======================================================
Colaboración de Rubén Flores (ausubo@mail.com)

******************************************************
Violeta

En mi existir 
como una estela 
dejó el dolor 
cruento sufrir 
y fuiste tu 
linda Violeta 
sobre mis noches 
luna de abril. 

Saben las aves 
del mar gigante 
cuanto te quiere 
MI corazón 
y cuando escuches 
su voz distante 
piensa un instante 
en mi pasión. 

Cuando en las noches 
mires al cielo 
desde ese cielo 
te miro yo, 
pues las estrellas 
y los luceros 
son compañeros 
de mi dolor. 

Por más lejos que me lleve 
el hado cruel que me condena padecer 
sin ti, 
linda Violeta 
flor de ilusión que no muere 
aquel cariño 
vivirá en mi. 

Saben las aves 
del mar gigante 
cuanto te quiere 
MI corazón 
y cuando escuches 
su voz distante 
piensa un instante 
en mi pasión.

Tags: , , , , , , , , , , , , , , , , , , , , , , ,

Comments are closed.

Volver a Cancionero