Volver a Cancionero



El niño Jesús (cancionero Tuna) Acordes Tablatura Cuatro Puertorriqueño, Musica Jibara (Aguilando)


El niño Jesús

Autor: Tony Croato

Interpretan: TunaEspaña

TunaEspaña (Don Dudo) www.TunaEspaña.es   www.TunaEspana.com

Ritmo:Aguilando

Enlace Youtube: Pinche aqui para escuchar la cancion

01Tunas De España Tuna España Viena TT

EL TONO ESTA EN MIM

<CORO>
|-------------|-------4-5--|
|-5-5-5-4---5-|-4---5------|
|---------7---|---7--------|
|-------------|------------|
|-------------|------------|
EN LA PUERTA UN NIÑO. . .

|-------------|---------4-|
|-4-4-4-----4-|-----4-7---|
|-------7-5---|-7-5-------|
|-------------|-----------|
|-------------|-----------|
CON CALZONES ROTOS. . .

|-4-4-4---4---|-4-4-7-4-(5)-|
|-------7---5-|-------------|
|-------------|-------------|
|-------------|-------------|
|-------------|-------------|
VIENE CON MARACAS. . .

|---4-5-7-4---|-----5-4-----|
|-7---------5-|---5-----(4)-|
|-------------|-7-----------|
|-------------|-------------|
|-------------|-------------|
PIDE SU AGUINALDO . . .

<VERSO>
|-4-4-4---4---|-4-4-7-4-(5)-|
|-------7---5-|-------------|
|-------------|-------------|
|-------------|-------------|
|-------------|-------------|

|---4-5-7-4---|-----5-4-----|
|-7---------5-|---5-----(4)-|
|-------------|-7-----------|
|-------------|-------------|
|-------------|-------------|

[AQUI LES PONGO LOS ACORDES PARA GUITARRA]
<coro>

EN LA PUERTA HAY UN [Mim]NIÑO SE LLAMA JE[Lam]SUS,

CON CALSONES [Re7]ROTOS DESCALSO Y PE[Sol7]LU,

VIENE CON MA[Mi7]RACAS, ES LA NAVI[Lam]DAD,

Y PIDE SU AGUI[Mim]NALDO, [Do7]TE QUIERE CAN[Si7]TAR.

<1>

YO NO TENGO TIEMPO, NO PUEDO ESCUCHAR,

DILE QUE HAY ENFERMOS, QUE EL SEÑOR NO ESTA.

ESE ES UNO DE ESOS, DE ESOS DE ARRABAL,

DE ESOS QUE ME ROBAN, UN HIJO DEL MAL.

<2>

CIERRALE LA PUERTA, NO LO QUIERO AQUI,

MI AMIGO ME ESPERA, ME TENGO QUE IR.

IRME YA DE FIESTA, VOY A PARRANDEAR,

DILE QUE MOLESTA, SE HACE TARDE YA.

<3>

DILE QUE ME [Mi7]DEJE, DE UNA VES EN [Lam]AZ,

QUE ES NOCHE DEL [Mim]NIÑO, [Do7]QUE EN CIELO ES[Si7]TA.

<4>

NO HAY NINGUN PECEBRE, NO HAY NINGUN PORTAL,

SOLO TIENE HAMBRE, HAMBRE DE ARRABAL.

Y NINGUNA ESTRELLA, POR EL BRILLARA,

NI LOS REYES MAGOS, SE MOLESTARAN.

<PUENTE>

JESUS MI HER[Mim]MANO, JESUS MI AMIGO,

JESUS EXTRAÑO, JESUS VECINO,

JESUS EL [Fa#]BARIO, JESUS LA GENTE,

JESUS LA [Si7]VIDA, SENCILLAMENTE.

<5>

VIENE CON MA[Mi7]RACAS, ES LA NAVI[Lam]DAD,

Y PIDE SU AGUI[Si7]NALDO, [Do7]A LA HUMANI[Mim]DAD.

Tags: , , , , , , , , , , , , , , , , , , , , , , , ,

Comments are closed.

Volver a Cancionero