Volver a Cancionero



Lamento Borincano (cancionero Tuna) Acordes Tablatura Cuatro Puertorriqueño, Musica Jibara


Lamento Borincano

Autor: Rafael Hernandez

Interpretan: TunaEspaña

TunaEspaña (Don Dudo) www.TunaEspaña.es   www.TunaEspana.com

Ritmo:

Enlace Youtube: Pinche aqui para escuchar la cancion

01 48Tuna España TT

Intro
  (MI)                                            
G|-----------------------------------------------------------------|
D|---------0---2-0-4---2---------------------------0---2-2---0-----|
A|-------2---4-------4---2-2----------2-----0----2---4-----2---4-0-|
E|---0-4----------------------0-2-3-4---4-2----4-------------------|
B|-----------------------------------------------------------------|

 (La) Sale...                 
G|---------------------------------------------------------------|
D|---2-2--3-2-0---0-0--2-0----------0---------0------------------|
A|--------------4----------3-2-3-3----3-2-0-2----3-2-0---0-------|
E|-----------------------------------------------------4---------|
B|---------------------------------------------------------------|

    Lleva...                                                              
G|---------------------------------------------------------------|
D|---2-2--3-2-0---0-0--2-0----------0---------0------------------|
A|--------------4----------3-2-3-3----3-2-0-2----3-2-0---0-------|
E|-----------------------------------------------------4---------|
B|---------------------------------------------------------------|

                                             Y alegre...
G|-------0-------------------------------------2-2-----1-2-1-----|
D|-----0---3----0-1-2--------0-2--0----------2-----2-4-------4---|
A|---2--------3--------2-2-3--------3-2-0-4----------------------|
E|---------------------------------------------------------------|
B|---------------------------------------------------------------|

G|---------------------------------------------------------------|
D|---2-4-2-4-2-4-2-4-2-4-2-4--2-0---2--------0---2-0-4---2-------|
A|--------------------------------4---2----2---4-------4---2-2---|
E|---------------------------------------4-----------------------|
B|---------------------------------------------------------------|

                             Final
G|--------------------------|-------2---|
D|-------0---2-2----0-------|---3-3-----|
A|-----2---4------2---4-0---|-----------|
E|---4----------------------|-----------|
B|--------------------------|-----------|

LAMENTO BORINCANO

Sale loco de contento,
con su cargamento para la ciudad,
ay para la cuidad.
Lleva en su pensamiento
todo un mundo lleno de felicidad
ay, de felicidad.

Piensa remediar la situación
del hogar que es toda su ilusión, si
Y alegre, el jibarito va cantando asi, 
diciendo asi, bailando asi
por el camino:
'Si yo vendo la carga, mi dios querido
un traje a mi viejita voy a comprar'

Y alegre tambien su yegua va
al presentir que aquel cantar
es todo un himno de alegría.

Y en esto le sorprende la luz del día
y llegan al mercado de la ciudad. 
Pasa la manana entera sin que nadie
quiera su carga comprar
ay, su carga comprar.

Todo, todo esta desierto,
el pueblo esta lleno de necesidad
ay, de necesidad.

Se oye ese lamento por doquier
en mi desdichada Borinquen.
Y triste, el jibarito va llorando asi,
penando asi, siguiendo asi por el camino:
'Que sera de Borinquen mi dios querido
que sera de mis hijos y de mi hogar.'

Borinquen, la tierra del Edén,
la que al cantar, el gran Gothie
llamo la perla de los mares.
Y ahora que tu te mueres con tus pesares 
dejame que te cante yo tambien.

Tags: , , , , , , , , , , , , , , , , , , , , , , , ,

Comments are closed.

Volver a Cancionero