Volver a Cancionero



Preciosa (cancionero Tuna) Acordes Tablatura Cuatro Puertorriqueño, Musica Jibara


Preciosa

Autor:Rafael Hernandez

Interpretan: TunaEspaña

TunaEspaña (Don Dudo) www.TunaEspaña.es   www.TunaEspana.com

Enlace Youtube: Pinche Aqui para escuchar la cancion

Enlace Youtube:Pinche aqui para escuchar la cancion (Johnny Albino y su Trio San Juan)

Enlace Youtube: Pinche aqui para escuchar la cancion (Alfredo Kraus)

Enlace Youtube: Pinche aqui para escuchar la cancion (El Indio Araucano)

Enlace Youtube:

Enlace Youtube:

00 Tuna España Universidad Murcia Rector Cobacho 90

G|-----2-4-5-4-2-1-2-2--0-2-4-2-0---0-0------0-2-0-----------------|
D|---2----------------------------4--------3-------3-2-3-3---2-2---|
A|---------------------------------------3-----------------2-------|
E|-----------------------------------------------------------------|
B|-----------------------------------------------------------------|

                                                X2 \
G|---------2-1-4-1--2-2-0-0------5-5-4-4-2-1-----------------------|
D|---0-3-2------------------3-2-----------------------------------*|
A|-----------------------------------------------------------------|
E|----------------------------------------------------------------*|
B|-----------------------------------------------------------------|
                                                                   /

G|-----2-2----2-2---1-1----------------------2-2---1-1-------------|
D|---2------2-----4-----2-4-4---2----------2-----4-----2-4-4---2-0-|
A|----------------------------4---0-2-4-4--------------------4-----|
E|-----------------------------------------------------------------|
B|-----------------------------------------------------------------|

G|----------4-4-1-2-2---1-1----------------------------------------|
D|-----2--4-----------4-----2-4-4-0-2-2--2-4-4-0-2-2--2-4-4-0-2-2--|
A|---4-------------------------------------------------------------|
E|-----------------------------------------------------------------|
B|-----------------------------------------------------------------| 

G|----------------2-2---1-1-----------------------2-2-2-4-4-4------|
D|-----0--------2-----4-----2-4-4----2----------2------------------|
A|---4---4-2-4---------------------4---0-2-4-4---------------------|
E|-----------------------------------------------------------------|
B|-----------------------------------------------------------------| 

G|---0-0-0-2-2-2------4-4-4-4-4-4-5-5-5--5-4-5-6-2----2-2---1-1----|
D|---------------4--4-------------------------------2-----4--------|
A|-----------------------------------------------------------------|
E|-----------------------------------------------------------------|
B|-----------------------------------------------------------------|  

G|------------------------2--2-4-2-4-6-----------------------------|
D|---2-4-4-0-2-2--2-4-2-4------------------------------------------|
A|-----------------------------------------------------------------|
E|-----------------------------------------------------------------|
B|-----------------------------------------------------------------|

Yo se lo que son los encantos
(oh, tierra de mi amor,)
de mi Borinquen hermosa.
(MI perfumada flor)
Por eso la quiero yo tanto
y siempre la llamare, Preciosa.
Isla del Caribe
Isla del Caribe.
Yo se de sus hembras trigueñas
(preciosas como el sol)
y del olor de sus rosas,
(de perfumado olor)
por eso a mi tierra riqueña,
por siempre la llamare, Preciosa

Isla del Caribe,
Isla del Caribe.....
Borinquen...

Preciosa te llaman las olas
del mar que te bañan.
Preciosa, por ser un encanto,
por ser un Edén.

Y tienes la noble hidalguía
de la Madre España.
Y el fiero cantío del Indio bravío
lo tienes también.
01 Tuna España 20 TT
Preciosa te llaman los bardos
que cantan tu historia.
No importa el tirano te trate
con negra maldad.

Preciosa serás sin bandera
sin lauros, ni glorias.
Preciosa, preciosa te llaman los hijos
de la libertad.

Tags: , , , , , , , , , , , , , , , , , , , , , , , ,

Comments are closed.

Volver a Cancionero