Volver a Cancionero



Seis Celines (cancionero Tuna) Acordes Tablatura Cuatro Puertorriqueño, Musica Jibara


Seis Celines

Autor:

Interpretan: TunaEspaña

TunaEspaña (Don Dudo) www.TunaEspaña.es   www.TunaEspana.com

Ritmo:

Enlace Youtube: Pinche aqui para escuchar la cancion

01 Tuna España 20 TT

Intro
                                                                x2 
G|---------10-10-10-7-9-9-9-7-6--------9-9-9-7-6-7-9-10-7----------|
D|---7-6-7-----------------------7-6-7----------------------------*|
A|-----------------------------------------------------------------|
E|----------------------------------------------------------------*|
B|-----------------------------------------------------------------|

                                                  x2  
G|---------7-7-5-5-3-3-2-2---2-0-----------------------------------|
D|---7-6-7-----------------2-----3-2-0----------------------------*|
A|-----------------------------------------------------------------|
E|----------------------------------------------------------------*|
B|-----------------------------------------------------------------|

Acompañamiento(el trovador entra) 

G|---2-----3-2--0-----3-2--2-----3-2--0-----3-2--------------------|
D|-----3----------2----------3----------2--------------------------|
A|-------5----------4----------5----------4------------------------|
E|-----------------------------------------------------------------|
B|-----------------------------------------------------------------|

Cuando termina el trovador solo se toca mitad de acorde y se
regresa a el intro.

G|---2---------------|
D|-----3-------------|
A|-------5-----------|To Intro
E|-------------------|
B|-------------------|

Tags: , , , , , , , , , , , , , , , , , , , , , , ,

Comments are closed.

Volver a Cancionero