Volver a Cancionero



Seis con decima (cancionero Tuna) Acordes Tablatura Cuatro Puertorriqueño, Musica Jibara


Seis con decima

Autor:

Interpretan: TunaEspaña

TunaEspaña (Don Dudo) www.TunaEspaña.es   www.TunaEspana.com

Ritmo:

Enlace Youtube: Pinche aqui para escuchar la canción

01 48Tuna España TT

 Intro
G|---------2-0-----0------------------3-0-3-2---2-0----------------|
D|-----0-3-----3-2---3-0------------2---------3-----2---0----------|
A|---0-------------------1---0--0-4-------------------4------------|
E|-------------------------3---------------------------------------|
B|-----------------------------------------------------------------|

 escala                                                               
G|-----------------------------------------------------------------|
D|---0-2-3-0---0-2-------0-----------------------------------------|
A|-----------3-----3-1-3---1-0-1-3-0---0-1-------0-----------------|
E|-----------------------------------3-----3-1-3---1-0-1-3-0-------|
B|-----------------------------------------------------------3-----|

G|-------------------3-2-1-2-----0---------------------------------|
D|-------------0-------------2-2-----0--0-2-3-0---0-2-------0------|
A|-----0-3---1-----0---------------4------------3-----3-1-3---1-0--|
E|---1-----3-----3-------------------------------------------------|
B|-----------------------------------------------------------------|

G|-----------------------------------------------------------------|
D|------------------------------------0-------0--------------------|
A|---0---0-0-0---0-0-0---0-0-0------0-------1-----0--0-2-4---0-2---|
E|-----3-------1-------0----------1-----1-3-----3----------4-------|
B|-----------------------------3-----------------------------------| 

G|-------0-2----||---2-------0-------------------------------------|
D|---2-3-----0--||*----3-0-----2-----3-0-----2-------0-------------|
A|--------------||---------3-----3-1-----1-0---3-0-----1-----------|
E|--------------||*--------------------------------3-----3-1-------|
B|--------------||-------------------------------------------------|  

                         Fine
G|---------------------||------------------------------------------|
D|--------------------*||-------0---------0--------------0---------|
A|---3-0-----1---------||-----0---------1-------0--0-2-4-----------|
E|-------1-0---3-0----*||---1-----1-2-3-----3-4--------------------|
B|-----------------3---||------------------------------------------|

Tags: , , , , , , , , , , , , , , , , , , , , , , ,

Comments are closed.

Volver a Cancionero