Volver a Cancionero



Seis Pampero (cancionero Tuna) Acordes Tablatura Cuatro Puertorriqueño, Musica Jibara


Seis Pampero

Autor:

Interpretan: TunaEspaña

TunaEspaña (Don Dudo) www.TunaEspaña.es   www.TunaEspana.com

Ritmo:

Enlace Youtube: Pinche aqui para escuchar la cancion

00 TunaEspaña radiopita 2

Intro

G|---0-0-2-4-2-0-2---------0---0-4-2--0-2-4-2-0-2---0--------------|
D|-----------------4-2-2-4---4--------------------4---2-4-0-2---0-*|
A|------------------------------------------------------------4----|
E|----------------------------------------------------------------*|
B|-----------------------------------------------------------------|

Acompañamiento(entra el trovador)                                                               

       SOL         RE          LA7         RE 
G|-----------------------------------------------------------------|
D|-------0-------------------------------------0-------------------|
A|-----2---2---------0-----------0-----------0---------------------|
E|---3-------3-----2---2-------3---3-------2-----------------------|
B|---------------3-------3---2-------2---3-------------------------|

Nota: En este Seis es como todos. Se toca la introducción 2 veces
y luego se toca el acompañamiento ,cuando acaba el trovador el verso    
se regresa a la introducción y asi progresivamente.

Tags: , , , , , , , , , , , , , , , , , , , , , , ,

Comments are closed.

Volver a Cancionero