Volver a Cancionero



Villancico Yaucano (cancionero Tuna) Acordes Tablatura Cuatro Puertorriqueño, Musica Jibara (Aguilando)


Villancico Yaucano

Autor: Amaury Veray

Interpretan: TunaEspaña

TunaEspaña (Don Dudo) www.TunaEspaña.es   www.TunaEspana.com

Ritmo:

Enlace Youtube: Pinche Aqui para escuchar la cancion

00 TunaEspaña Beca

G|--------------------------0------------------------0-------------|
D|-----------0---2-2--2-1-2---3-2-2----------0---------------------|
A|-----0-2-3---3--------------------0--0-2-3---3-0-----------------|
E|---3---------------------------------------------3---------------|
B|-----------------------------------------------------------------|

G|---2---0-----------------------------------0---------------------|
D|-----2---3---2-0------------0---2-2--2-1-2---3-2-2---------------|
A|-----------0-----3----0-2-3---3--------------------0-------------|
E|--------------------3--------------------------------------------|
B|-----------------------------------------------------------------|

G|-----------------0--2---0----------------------------------------|
D|---------0------------2---3---2-0--------------------------------|
A|---0-2-3---3-0--------------0-----3------------------------------|
E|---------------3-------------------------------------------------|
B|-----------------------------------------------------------------|

2da Parte

G|---0---0-5-4-2-2-0--------3-2-0-0--------------------------------|
D|-----4--------------2-1-2---------3--------0-------2-------------|
A|-------------------------------------0-2-3---3-0-----------------|
E|-------------------------------------------------3---------------|
B|-----------------------------------------------------------------| 

G|--------------------0---0-5-4-2-2-0--------3-2-0-0---------------|
D|-------2-0-----0------4--------------2-1-2---------3-------------|
A|---0-2-----3-2---3-----------------------------------------------|
E|-----------------------------------------------------------------|
B|-----------------------------------------------------------------| 

G|-----------1-2-5-0----0-4-2-0------------------------------------|
D|-------0-3----------4---------2-0--------------------------------|
A|-----0-----------------------------------------------------------|
E|---4-------------------------------------------------------------|
B|-----------------------------------------------------------------|  

Quisiera, niño, besarte 
y San José no me deja, 
dice que te haré llorar, 
 verdad que aun así me dejas? 

Ha nacido en un portal, 
llenito de telarañas, 
entre la mula y el buey, 
el Redentor de las almas. 

En Belén tocan a fuego, 
del portal sale una llama, 
es una estrella en el cielo 
que ha caído entre las pajas. 

Yo soy un pobre yaucano 
que vengo de yauco aquí, 
y a mi niño Dios le traigo 
un gallo quiquiriquí. 

Ya lo sabes, niño hermoso, 
soy del pueblo del café 
por si quieres dos saquitos, 
yo también te los traeré. 
Yo soy Juan el verdulero, 
que vengo de la montaña 
y te traigo viandas buenas, 
desde mi humilde cabaña. 

Al niño recien nacido 
todos le ofrecen un don; 
yo, como no tengo nada, 
le ofrezco mi corazón.

Tags: , , , , , , , , , , , , , , , , , , , , , , , , ,

Comments are closed.

Volver a Cancionero