Volver a Cancionero



Guayaquileña (Acorde guitarra) (Letra Tablatura) cancionero Tuna


.

Guayaquileña

.

Autor:

Interpretan: Julio Jaramillo

TunaEspaña (Don Dudo) www.TunaEspaña.es   www.TunaEspana.com

Ritmo: Valsecito

Enlace Youtube : Pinche aqui para escuchar la cancion

00 TunaEspaña.es, Tunas Universitarias, Don Dudo, Don Musikito, Don Raiman, Don Aberroncho

3.--------------------------------------
2.---------------------17-17-14-14-16-17
1.-14-16-17-17-16-17-14-14--------------

3.---------------------16-16-14-11-13-14
2.-14-16-17-17-16-17-14-14--------------
1.-------------------------------------- Bis(se repite los dos)

3.-14
2.---14-----14--14-----14--
1.-----14-14--14--14-12--12     x2

3.-----13------12-------11------------
2.---14-14---13--13---12--12-------------
1.-12------11-------10------9-9-9-9-------

3.-----11--------11-------8-----------------------
2.---12--12---10---10---9-----10---12-14-12-15-14-
1.-11-------9---------7-----7---------------------

D aqui en adelante ya empieza la cancion

3.-11--11-11---------------------------------------
2.---9-------9-10------------12-13-15-15-9-11-12---
1.------------------13-15-16-----------------------

a por cierto si quieren tocar con las notas del disco
famsos SIm DOsos  LA RE

RE

Al volver, despues de un año entero
            SIb        LA7
de haber deseado este momento
                                          RE
quiero ser el motivo que llene todo tu pensamiento
     RE7
Para ver si con el  tiempo
                      SOL
no has olvidado esta promesa
           FA                 LA7            RE
de amarme siempre auque mi ausencia sea tu tristeza
         FA                 LA7            RE
de amarme siempre auque mi ausencia sea tu tristeza
         LA7                        RE
Guayaquilleña, linda florcita de primavera
         LA7                           RE
de los jardines la más bonita por ser morena,
         RE7                            SOL
Guayaquilleña te entrego toda mi vida entera,
          FA           LA7               RE
con mi canción tambien te entrego el corazón.

Tags: ,

Comments are closed.

Volver a Cancionero