Volver a Cancionero



Los versos para mi madre (Acorde guitarra) (Letra Tablatura) cancionero Tuna


.

Los versos para mi madre

.

Autor:

Interpretan: Julio Jaramillo

TunaEspaña (Don Dudo) www.TunaEspaña.es   www.TunaEspana.com

Ritmo: Vals

Enlace Youtube : Pinche aqui para escuchar la cancion

00 100_2898www.TunaEspaña.es

 Intro  G-C-A7-Dm- Dm7-F-C-F G-C

E||--------------------|--------------------|--------------------|
B||--------------------|--------------------|--------------------|
G||--0-----0-----0--2--|-----------------2--|-----------------2--|
D||-----4-----4--------|--3--0-----0--3-----|--3--0-----0--3-----|
A||--------------------|--------2-----------|--------2-----------|
E||--------------------|--------------------|--------------------|

-----------------|--------------------|-----------------|--------0--3--1--0--|
-----------------|--------------------|-----------------|-----2--------------|
----0-----0------|--3--3--3--3--3--3--|----2--1--2------|--2-----------------|
-------4---------|--------------------|-----------------|--------------------|
-----------------|--------------------|-----------------|--------------------|
-----------------|--------------------|-----------------|--------------------|

                                 trémolo picking
                                   //////          //////        //////
---------------|--1--1--1--1--1--1--|------------2--|------------3--|
------3--------|--3--3--3--3--3--3--|------------3--|------------3--|
---------------|--------------------|---------------|---------------|
---------------|--------------------|---------------|---------------|
---------------|--------------------|---------------|---------------|
---------------|--------------------|---------------|---------------|

--------------|-----0--3--6--5--3--|-----------3--5--7--|--3--2--3--5--7--8--|
--------------|--2-----------------|--6--5--6-----------|--------------------|
--------------|--------------------|--------------------|--------------------|
--------------|--------------------|--------------------|--------------------|
--------------|--------------------|--------------------|--------------------|
--------------|--------------------|--------------------|--------------------|

--8--7--8------------||
-----------8---------||
--------------9------||
-----------------10--||
---------------------||
---------------------||

Verso 1
               C        A7           Dm
Mi madre es un poema de blanca cabellera
                     G     G7             C
Que tiene a flor de labios un gesto de perdón
                     F                          C
Cuando tras larga ausencia regreso a ella la espera
                      G7                  C
Me abraza como a un niño me besa con pasión
                 C       A7            Dm
Mi madre es pequeñita igual que una violeta
                    G    G7               C
Lo dulce esta en su alma el llanto en el adiós
               F                     C
Es dueña de mi sueño aunque no soy poeta
                G    G7                 C
Los versos a mi madre me los inspira Dios

Coro
                    G                       G7
Que linda que es mi madre que suerte es tenerla
               C     G7            C
Que dichoso al verla feliz en el hogar

Estrofa

                        Tremolo picking

E||-------------8--10--12--|--12--13--15--13--12--13--|--12--9---10--7--8----|
B||--8--10--12---------13--|--14--15--17--15--13--13--|--13--10--10--8--8----|
G||------------------------|--------------------------|----------------------|
D||------------------------|--------------------------|----------------------|
A||------------------------|--------------------------|----------------------|
E||------------------------|--------------------------|----------------------|

--7--8--------------||
--------8-----------||
-----------9--------||
--------------10----||
--------------------||
--------------------||

Radiante de alegría

Al lado de sus hijos

Cuidando sus nietitos

Que santa que es mi madre

Bendícela si

Bendícela señor

Verso 2

                C       A7        Dm
Mi madre es una rosa de pétalos ajados
                 G    G7               C
Que guarda su perfume muy junto al corazón
                   F                          C
Viviendo nuestra angustia no se lo que a llorado
           G7                             C
Por eso al mencionarla me embargo de emoción
                 C        A7         Dm
Mi madre como un cromo de mágica paleta
                 G    G7                C
Canción dolor ternura de todo hay en su voz
                F                       C
Es dueña de mis sueños aunque no soy poeta
                G                    C
Los versos a mi madre me los inspira Dios

Tags: ,

Comments are closed.

Volver a Cancionero