Volver a Cancionero



Penas Amargas (Acorde guitarra) (Letra Tablatura) cancionero Tuna


.

Penas Amargas

.

Autor:

Interpretan: Julio Jaramillo, Olimpo Cardenas

TunaEspaña (Don Dudo) www.TunaEspaña.es   www.TunaEspana.com

Ritmo: Pasillo

Enlace Youtube : Pinche aqui para Escuchar La Cancion

Tunas Universitarias, Tunas y Estudiantinas, Tuna España ,Certamen Internacional Tunas

Intro
       B7
|-2-2-3-3-3-5-5-5-3-5----|
|-3-3-5-5-5-7-7-7-5-7----|
|------------------------|
|------------------------|
|------------------------|
|------------------------|

                  Em
|-2-3-3-5-5-5-7-7-7-5-7----|
|-3-5-5-7-7-7-8-8-8-7-8----|
|--------------------------|
|--------------------------|
|--------------------------|
|--------------------------|

                   Am
|-5-5-7-7-7--8--8--8-7--8----|
|-7-7-8-8-8-10-10-10-8-10----|
|----------------------------|
|----------------------------|
|----------------------------|
|----------------------------|

                    Em
|-7----8-7--8-7--7-7-7-5-7----|
|-8---10-8-10-8--8-8-8-7-8----|
|-----------------------------|
|-----------------------------|
|-----------------------------|
|-----------------------------|

              B7
|-5-7-7-7-5-5-5-3-5----|
|-7-8-8-8-7-7-7-5-7----|
|----------------------|
|----------------------|
|----------------------|
|----------------------|

|-7-7-7-7-8-8-7--------5-----------------------------<12>---|
|--------------------8---8-7-----------0-------------<12>---|
|------------------------------------0---0-----------<12>---|
|----------------------------------2-------2----------------|
|--------------------------------2--------------------------|
|-----------------------------------------------------------|

         Em             B7             Em
Que hare yo sin tu amor en este mundo
 B7                    Em
Sin poderte borrar de mi memoria
    Am                     Em
Solo te pido que de mi vida guardes
      B7                  Em
Entre tu pecho la callada historia

Que hare yo sin tu amor en este mundo
Si antes de nacer me huviera muerto.
No tendria esta penas tan amargas
Ni tan triste estuviera padesiendo.

Ya mi alma hoy no existe
Dentro del corazon del lado yerto
No me mires con ojos apasibles
Dejadme padeser que ya estoy muerto

No me dejes tan huerfano en este mundo
Ni tampoco morir en la venganza
Solo te pido un beso de tu boca
Y que me deje tu amor una esperanza.

Este Es el Foramto del Punteo:
          Em      B7        Am
|----------0-------2---------0----|
|----------0-------0---------1----|
|----------0-------2---------2----|
|---------------------------------|
|----2--2------2--2-----0--0------|
|---------------------------------|

Tags: , ,

Comments are closed.

Volver a Cancionero