Volver a Cancionero



Crei (Requinto) (Acorde guitarra) (Letra Musica)Tuna (Tab)


Crei

Autor: Chucho Monge

Interpretan:  Trio Los Panchos, Los Dandys, Trio Los Paladines, Lucho Gatica, Emilio Tuero, Los Bribones, Los tecolines

Tuna España (Don Dudo)     www.TunaEspana.com    www.TunaEspaña.es

Ritmo: Bolero

Enlace Youtube: Pinche aqui para escuchar el bolero

01 Tuna España 20 TT

 

TONO PANCHOS

Circulo de D
(D - Bm - Em - A7) 

   D -Bm -Em         A7      D  -Bm-Em
Crei,        que tu vida era mia

      A7       D   -Bm      Em-A7          D  -Bm-Em-A7
y que tu me querias    como yo te quiero a ti.

   D -Bm-Em       A7            D   -Bm-Em
Cante       la ilusion de mi anhelo

        A7       D  -Bm      Em-A7     D  -D7
y hubo sol en mi cielo y alegria  de vivir

   Gm                      D      -D7
Despues mi cancion se hiso triste

   Gm              A
Llore cuando yo te perdi.

             Requinto:    (D-Bm-Em-A7)   4 veces

   Gm                      D      -D7
Despues mi cancion se hiso triste

   Gm              A
Llore cuando yo te perdi.

   D -Bm -Em         A7      D  -Bm-Em
Crei,        que tu vida era mia

      A7       D   -Bm      Em-A7              D
y que tu me querias    como yo    te quiero a ti,

Gm  D
a   ti.

 

TONO LOS DANDYS

Riff 1
  F  Dm Gm        C    F              Dm          Gm          C
e-17^---10^--13^--12^--13^--12^--15^--13^-10^-13^-12^-10^--8^-6^-5^--
B-18^---11^--15^--13^--15^--13^--17^--15^-11^-15^-13^-11^-10^-8^-6^--
G--------------------------------------------------------------------
D--------------------------------------------------------------------

      F  Dm  Gm               C
e-6^--8^-----10^--6^-10^-13^-12^---
B-8^-10^-----11^--8^-11^-15^-13^---
G----------------------------------
D----------------------------------

SOLO  (1:35)
           F  Dm  Gm         C           F           Dm  Gm
e--8^-10^--8^--------6^--8^-10^-13^-12^--8^--10^--8^-5^-------
B-10^-11^-10^--------8^-10^-11^-15^-13^-10^--10^-10^-6^-------
G-------------------------------------------------------------
D-------------------------------------------------------------

          C          F        Dm        Gm    C        F
e--6--8--10--13--12--8--10--8--5--5-------6------------5------
B--8-10--11--15--13-10--11-10--6--6-5-4-------5-6--8---6------
G---------------------------------------7-----5--------5------
D---------------------------------------------5--------7------

Intro    F Dm  Gm  C   (3)

   F Dm  Gm         C         F Dm  Gm
Creí,       que tu vida era mía,
       C          F  Dm
y que tú me querías,
      Gm  C              F Dm  Gm   C
como yo,    te quiero a ti.

   F Dm Gm          C              F Dm  Gm
Canté,       la ilusión de mi anhelo,
        C             F Dm
y hubo sol en mi cielo,
      Gm  C         F
y alegría, en mi vivir.

CORO
    Bbm                         F
Después, mi canción se hizo triste,
   Bbm            F   Dm  Gm    C
Lloré, porque ya te perdí.

Repetir 1a. Estrofa

SOLO   F Dm  Gm  C   (3)

CORO

Repetir 1a. Estrofa

 

Tags: , , , , , , , , , , , , , , , , , , , , , , , , , , , ,

Leave a Reply

Volver a Cancionero