Volver a Cancionero



Cuando pienso en tí ,(Acorde guitarra), (Letra Tablatura), cancionero Tuna,Bolero


.

Cuando pienso en tí

.

Autor: Jean Manuel DeScarano, Leroy Gómez, Roroco

Interpretan: Jose Feliciano

TunaEspaña (Don Dudo) www.TunaEspaña.es   www.TunaEspana.com

Ritmo:

Enlace Youtube :Pinche aqui para escuchar la cancion

.

TunaEspaña, Tunas Españolas, Tunas Universitarias, Universidad, Don Lalo, Don Dudo

Con Capo en el 1er. Traste

Intro
e|--------------------------------------------------------------------------------
B|-8-10-11-8------8-11-10-8--------------8-----------------------------------8----
G|-----------8.-8-----------10-8-7.-8-10---10-8-7--------7-8-7.-7-7----8--7--7-7--
D|------------------------------------------------10.-10------------10-10-8----8--
A|--------------------------------------------------------------------------------
E|--------------------------------------------------------------------------------

e|-----------------------------------------------------------------------|
B|-8-10-11-8------8-11-10-8---------------8-7-8-9-10.--------------------|
G|-----------8.-8-----------10-8-7.-----7-------------7-8-7.-8-7-5-------|
D|----------------------------------5-8----------------------------8-7-5-|
A|-----------------------------------------------------------------------|
E|-----------------------------------------------------------------------|

       F#m
Cuando pienso en ti
    Bm7        E      A
recuerdo que contigo conocí el amor
   D                   Bm
me sangra las heridas que dejó
    E     A       (G#7-C#7)
que haré sin ti.
       F#m
Cuando te perdí
    Bm7        E      A
buscaba en mi almohada siempre tu calor
   D                   Bm
me ahogaba muy adentro este dolor
    E     A            F#7
dónde estas mi amor.

      Bm7
Cuando pienso en ti
    E                     A
tu cuerpo en mi cuerpo vuelvo yo a sentir
   D   Bm7
cuando pienso en ti
  C#                        F#m        F#7
recuerdo aquellas noches sin fin sin fin
      Bm7
cuando pienso en ti
    E                     A
me aferro a este dolor que siempre vive en mi
   D   Bm7
Cuando pienso en ti
      C#                        D        C#
recuerdo a ese hombre que yo fui que yo te di.

Solo ( F#m - Bm7 - E - A - D - Bm - E - A - [G#-C#7] )
e|----------------10-10-8--8--6-6-5-5---5----------------10-8--10-8--10-8--10-8---
B|-8-10-11--------11-11-10-10-8-8-6-6-8------------6-8/--11-10-11-10-11-10-11-10--
G|---------7-5-7.-------------------------7-5-7.-7--------------------------------
D|--------------------------------------------------------------------------------
A|--------------------------------------------------------------------------------
E|--------------------------------------------------------------------------------

e|-------------------------------------------------------------------
B|---8-10-11--8*10*11*8*10*11*8*10*11>>>-10-10.-8-8.-----------------
G|-8-------------------------------------------------10-10/(7)----7--
D|-------------------------------------------------------------10----
A|-------------------------------------------------------------------
E|-------------------------------------------------------------------

e|-----------------------|
B|---8-------------------|
G|--8--10-8-7------------|
D|-8----------10-8-7-...-|
A|-----------------------|
E|-----------------------|

       F#m
Cuando pienso en ti
    Bm7        E      A
me envuelve la tristeza de un presente gris
    D                        Bm         E
me abrazo a la nostalgia porque asi soy feliz
      A     F#7
estas en mi
       Bm7
Cuando pienso en ti
     E                     A
tu cuerpo en mi cuerpo vuelvo yo a sentir
 D         Bm7
cuando pienso en ti
   C#                        F#m       F#7
recuerdo aquellas noches sin fin sin fin
          Bm7
cuando pienso en ti
      E                       A
me aferro a este dolor que siempre vive en mi
 D                Bm
Cuando pienso en ti
      C#                        D        C#
recuerdo a ese hombre que yo fui que yo te di

Final
e|----------------------10-10-8--8--6-6-5-8-6-5---6-5-----5.------------------
B|-----7-8-10-11--------11-11-10-10-8-8---------8-----8-6----------------6/8--
G|-7-9-----------7-5-7--------------------------------------7-5-7.---5-7------
D|-----------------------------------------------------------------8----------
A|----------------------------------------------------------------------------
E|----------------------------------------------------------------------------

e|-8-6-8-6-6-6/5-5-5/3-3-3---3--------6-5---6-5--------|
B|-------------------------6--------8-----8------------|
G|------------------------------5-8-------------etc..--|
D|-----------------------------------------------------|
A|-----------------------------------------------------|
E|-----------------------------------------------------|

Tags: , , ,

Comments are closed.

Volver a Cancionero