Volver a Cancionero



Campana,(Acorde guitarra), (Letra Tablatura), cancionero Tuna


.

Campana

Autor: Tonino Baliardo, Los Reyes

Interpretan: Gipsy Kings

TunaEspaña (Don Dudo) www.TunaEspaña.es  

Ritmo: Rumba

Enlace Youtube : Pinche Aqui para escuchar la cancion

.

TunaEspaña, Tunas de España, Tunas Universitarias, Cancionero tuna, Pedro Cano,136a

(Capo on 2nd fret)

(NOTE: The intro is doubled by a second guitar playing the same chords but with
slightly different arpeggios.)

C#m                        Bsus4                    F#m7                         Bsus4
|-----------------------|---------------------|-----------------------|---------------------|
|---5-------------5----|-----4-----------5--|---2--------------5---|-----4-----------5--|
|-------6-----6------6-|-4-----4-----4-----|-------2------2-------|-4-----4-----4-----|
|----------6------------|-4--------4---------|4---------4-----------|-4--------4--------|
|4----------------------|-2------------------|4----------------------|-2------------------|
|-----------------------|---------------------|2----------------------|---------------------|
                                                                                                (Repeat all one time)

A                         G#                       F#m7                      G#
|------------------------|--------------------|-----------------------|--------------------|
|---2-------------2-----|---4------------4--|---2--------------5---|---4------------4--|
|-------2------2-----2-|-------5------5-----|-------2------2-------|-------5------5----|
|-----------2------------|----------6--------|4---------4-----------|----------6--------|
|4-----------------------|6------------------|4----------------------|6------------------|
|5-----------------------|4------------------|2----------------------|4------------------|
                                                                                               (Repeat last 2 bars once)
C#m                        
|-----------------------|------------------------|
|---5-------------5----|---5-------------5-----|
|-------6-----6------6-|-------6-----6------6-|
|----------6------------|----------6------------|
|4----------------------|4----------------------|
|-----------------------|------------------------|

C#m                Bsus9       F#m7      Bsus9
Dime Se-or por quŽ no vienes a m’

C#m / Bsus9 / A / G# 

C#m                Bsus9       F#m7      Bsus9
Yo no puedo quedarme un d’a sin ti

C#m                Bsus9                  F#m                 G#
Los gitanos juntos siempre est‡n mirando all’

C#m                       Bsus9       F#m7      Bsus9
Cuando sue-o la noche me siento feliz

C#m                Bsus9                  F#m                 G#
Los gitanos juntos siempre est‡n mirando all’

C#m                Bsus9       F#m7      Bsus9
Nai nai nai nai nai nai nai nai nai

C#m                Bsus9       F#m7      Bsus9
Dime Se-or por quŽ no vienes a m’

C#m                Bsus9                  F#m                 G#
Los gitanos juntos siempre est‡n mirando all’

C#m                Bsus9       F#m7      Bsus9
Nai nai nai nai nai nai nai nai nai

C#m                Bsus9                  F#m                 G#
Los gitanos juntos siempre est‡n mirando all’

(solo:)

F#m7 / E / Em(F) / D / C#m / Bsus9 / A / G#
(repeat)

(NOTE:  This section can be played arpeggio as you wish, since there are 3 guitars playing
 various arpeggios.)  

CHORDS:

C#m:   x46654
Bsus9:  x2445x
F#m7:  244252
A:  54222x
G#:   466544
F#m:  244222
Em(F):  xx5453

 

Tags: , , , , ,

Comments are closed.

Volver a Cancionero