Volver a Cancionero



Gitano Soy ,(Acorde guitarra), (Letra Tablatura), cancionero Tuna


.

Gitano Soy

Autor:

Interpretan: Gipsy Kings

TunaEspaña (Don Dudo) www.TunaEspaña.es  

Ritmo: Rumba

Enlace Youtube : Pinche aqui para escuchar la cancion

.

 Pedro Cano, Don Dudo, TunaEspaña, Tuna Universitaria, Pintor Pedro Cano, Carlicos, Don Trompetero, Don Chulin, 2

Intro: Mientras de fondo va: F#m - C#m - Bm - F#m  x2

   e ------------------------7-------------------
   B ----10-10p9-10---7-9-10---10-9-7-9-9-7-9----
   G --------------------------------------------
   D -11-----------------------------------------
   A --------------------------------------------
   E --------------------------------------------
x2
   e --------------------------------------------
   B ---7-9-10-9-7---7-7---9---9-9-7-5-5h7-5-7---
   G -9------------9-----9-----------------------
   D --------------------------------------------
   A --------------------------------------------
   E --------------------------------------------

           A
Tu no me llore
No me da pena
       Bm
No llora nada por mi
      C#m
Del amor que va acabando
        F#m
Es el amor igual

D ----------
A ---0-4-0--
E -0-------2

           A
Tu no me llore
                    Bm
De se acabando el amor

Pienso a ti
    C#m
Ya nunca no volvera
     F#m
El amor verdad

D ---------
A ---------
E -0-2-5-2-

 F#m         Bm
Soy, gitano soy
        C#m
Gitano soy
           F#m
Siempre sere

 F#m         Bm
Soy, gitano soy
        C#m
Gitano soy
           F#m
Siempre sere

Intro: Mientras de fondo va: F#m - C#m - Bm - F#m  x2

   e ------------------------7-------------------
   B ----10-10p9-10---7-9-10---10-9-7-9-9-7-9----
   G --------------------------------------------
   D -11-----------------------------------------
   A --------------------------------------------
   E --------------------------------------------
x2
   e --------------------------------------------
   B ---7-9-10-9-7---9-9---9---9-9-7-5-5h7-5-7---
   G -9------------9-----9-----------------------
   D --------------------------------------------
   A --------------------------------------------
   E --------------------------------------------

           A
Estoy acercando
Pero te encuentro
       Bm
En la cama
       C#m
Y el amor te va acabando
       F#m
No llora por mi

D ---------
A ---------
E -4p5-9-2-

          A
Estoy pensando
No llore nina
     Bm
El amor de verdad
         C#m
Por el amor que no tenemos
       F#m
Que sera por mi

 F#m         Bm
Soy, gitano soy
        C#m
Gitano soy
           F#m
Siempre sere

 F#m         Bm
Soy, gitano soy
        C#m
Gitano soy
           F#m
Siempre sere

Intro: Mientras de fondo va: F#m - C#m - Bm - F#m  x2

   e ------------------------7-------------------
   B ----10-10p9-10---7-9-10---10-9-7-9-9-7-9----
   G --------------------------------------------
   D -11-----------------------------------------
   A --------------------------------------------
   E --------------------------------------------
x4
   e --------------------------------------------
   B ---7-9-10-9-7---9-9---9---9-9-7-5-5h7-5-7---
   G -9------------9-----9-----------------------
   D --------------------------------------------
   A --------------------------------------------
   E --------------------------------------------

Tags: , , , , , ,

Comments are closed.

Volver a Cancionero