Volver a Cancionero



Calle Melancolía ,(Acorde guitarra), (Letra Tablatura), cancionero Tuna


.

Calle Melancolía

Autor: Joaquin Sabina

Interpretan: Joaquin Sabina

TunaEspaña (Don Dudo) www.TunaEspaña.es  

Ritmo:

Enlace Youtube : Pinche aqui para escuchar la cancion

.

Tuna España Mallorca  18 Mayo 2013 Don Setas Dism, cancionero tuna

Intro: (2º guitarra)

      D           D/C                D           D/C
e|-|----------------------0-----(0)----------------------0------(0)---|-|
B|-|------3------------3----3-------------3------------3----3---------|-|
G|-|----2---(2)-----2---------2---------2---(2)-----2---------2-------|-|
D|-|--0-------------------------------0-------------------------------|-|
A|-|--------------3-------------------------------3-------------------|-|
E|-|------------------------------------------------------------------|-|

Intro: (1º guitarra)

e|-|--------------------------------------------------------|-|
B|-|--------------------------------------------------------|-|
G|-|---------7-5-4\2-0h2-2--7-5-4\2--0----------------------|-|
D|-|--4p5-7---------------------------------4p5-7-4---------|-|
A|-|-------------------------------------------------2-3----|-|
E|-|--------------------------------------------------------|-|

e|-|---------------------------------------------------0------|-|
B|-|----------------------------------------------------2-----|-|
G|-|-----------------------------------------------------2----|-|
D|-|---2^--0-0p2h0-------4h5/7----2^--0-0p2h0-------------2---|-|
A|-|----------------2/5------------------------2/5---------0--|-|
E|-|----------------------------------------------------------|-|

Letra: 1ª estrofa

A                  Bm    G      A         D
Como quien viaja a lomos de una yegua sombría
A               Bm   G    E            A
Por la ciudad camino, no preguntéis a dónde.
C                 G       F         A       D
Busco acaso un encuentro que me ilumine el día
A                  Bm           G      A        D
Y no hallo más que puertas que niegan lo que esconden.

Las chimeneas vierten su vómito de humo,
A un cielo cada vez más lejano y más alto.
Por las paredes ocres se desparrama el zumo,
De una fruta de sangre crecida en el asfalto.

Ya el campo estará verde, debe ser primavera,
Cruza por mi mirada un tren interminable.
El barrio donde habito, no es ninguna pradera,
Desolado paisaje de antenas y de cables.

Vivo en el número siete, calle melancolía,
Quiero mudarme hace años al barrio de la alegría.
Pero siempre que lo intento ha salido ya el tranvía,
En la escalera me siento a silbar mi melodía.

Solo:

(acordes C  G  D  repetir 4  veces hasta A final)

e|-|--8p7-5--7h8-10-8p7-7p5--3h5------3p2-0-2h3-5--3h2-2h0------|-|
B|-|-----------------------------3-------------------------3-5--|-|
G|-|------------------------------------------------------------|-|
D|-|------------------------------------------------------------|-|
A|-|------------------------------------------------------------|-|
E|-|------------------------------------------------------------|-|

e|-|-------2-3-5-3-2-0------------------------------------------|-|
B|-|--3-5---------------3-0-0h3------0h1/3-3h5-1-0-1-0-----1p0--|-|
G|-|-------------------------------2--------------------------2-|-|
D|-|------------------------------------------------------------|-|
A|-|------------------------------------------------------------|-|
E|-|------------------------------------------------------------|-|

                                  A
e|-|------------------------------0-------|-|
B|-|---1p0---0h1/3-3h5-3-0-0h3-----2------|-|
G|-|------2-------------------------2-----|-|
D|-|---------------------------------2----|-|
A|-|----------------------------------0---|-|
E|-|--------------------------------------|-|

(2ª estrofa: acordes como en estrofa 1ª)

Como quien viaja a bordo de un barco enloquecido,
Que viene de la noche y va a ninguna parte.
Así mis pies descienden la cuesta del olvido,
Fatigados de tanto andar sin encontrarte.

Luego, luego de vuelta a casa, enciendo un cigarrillo,
Ordeno mis papeles, resuelvo un crucigrama.
Me enfado con las sombras que pueblan los pasillos,
Y me abrazo a la ausencia que dejas en mi cama.

Trepo, trepo por tu recuerdo, como una enredadera,
Que no encuentra ventanas donde agarrarse.
Soy esa absurda epidemia que sufren las aceras,
Si quieres encontrarme, ya sabes donde estoy.

Vivo en el número siete, calle melancolía,
Quiero mudarme hace años al barrio de la alegría.
Pero siempre que lo intento ha salido ya el tranvía,
En la escalera me siento a silbar mi melodía.

 

Tags: , , , , ,

Comments are closed.

Volver a Cancionero