Volver a Cancionero



Las Mañanitas, Requinto,Acorde Guitarra, Letra Tabladura, Cancionero Tuna,


Las Mañanitas

Tuna España , Tunas Universitarias, Tunas y estudiantinas, cancionero tuna, certamen internacional Tuna Costa Calida, Don Dudo, Tuna Medicina Murcia, Buen Tunar, Las Mañanitas

Popular

Interpretan: Trio Los panchos

Tuna España (Don Dudo)     www.TunaEspana.com    www.TunaEspaña.es



introduccion
          G       D7         G           C          G                       D7       G
E||------7--7-5-7-8---5-7-8--10--7-8--10-12---12-12-10--8--7-5-8--7--5-7-8--10-12-8--7--
B||------8--8-7-8-10--7-8-10-12--8-10-12-13---13-13-12--10-8-7-10-8--7-8-10-12-13-10-8--
G||-7-7-----------------------------------------------------------------------------5---
D||------------------------------------------------------------------------------7------
A||---------------------------------------------------------------------------9---------
E||-------------------------------------------------------------------------------------

G                 D7
Estas son las mañanitas
       G            C
que cantaba el rey David
        G
a las muchachas bonitas
          D7       G
se las cantamos aquí.

   D7                  G
Despierta mi bien despierta
 D7             G
mira que ya amaneció
          C         G
ya los pajarillos cantan
        D7        G
la luna ya se metió

...acelera el ritmo....

Que linda está la mañana
                   D7
en que vengo a saludarte
  Am              D7
venimos todos con gusto
                  G
y placer a felicitarte. 

El día en que tú naciste
                    D7
nacieron todas las flores
   Am             D7
en la pila del bautismo
                   G
cantaron los ruiseñores. 

    D7
Ya viene amaneciendo
       C
ya la luz del día nos dio,
                G
levántate de mañana
      D7           G
mira que ya amaneció. 

...disminuye el ritmo...

G                 D7
Estas son las mañanitas
       G            C
que cantaba el rey David
        G
a las muchachas bonitas
          D7       G
se las cantamos aquí.

   D7                  G
Despierta mi bien despierta
 D7             G
mira que ya amaneció
          C         G
ya los pajarillos cantan
        D7        G
la luna ya se metió




REQUINTO
1|--------------------------------------------------|
2|-------8--8--7--8--10--7--8--10--12--8--10--12--13|
3|--7-7---------------------------------------------|
4|--------------------------------------------------|
5|--------------------------------------------------|
6|--------------------------------------------------|

1|--------------------------------------------------------|
2|--13--13--12--10--8--7--10--8--7--8--10--12--13--10--8--|
3|--------------------------------------------------------|
4|--------------------------------------------------------|
5|--------------------------------------------------------|
6|--------------------------------------------------------|

1|--------------------------------------------------|
2|-------8--8--7--8--10--7--8--10--12--8--10--12--13|
3|--7-7---------------------------------------------|
4|--------------------------------------------------|
5|--------------------------------------------------|
6|--------------------------------------------------|

1|--------------------------------------------------------|
2|--13--13--12--10--8--7--10--8--7--8--10--12--13--10--8--|
3|--------------------------------------------------------|
4|--------------------------------------------------------|
5|--------------------------------------------------------|
6|--------------------------------------------------------|

1|-----------------------------------------------------|
2|--12--10--8--7-8--10--12-8--12--10--8--7--8--10--12--|
3|-----------------------------------------------------|
4|-----------------------------------------------------|
5|-----------------------------------------------------|
6|-----------------------------------------------------|

1|--------------------------------------------------------¡
2|----10--8--10-10--8--10-10--12-13-12-12--10-10--7--8-8--|
3|--------------------------------------------------------|
4|--------------------------------------------------------|
5|--------------------------------------------------------|
6|--------------------------------------------------------|

1|-----------------------------------------------------|
2|--12--10--8--7-8--10--12-8--12--10--8--7--8--10--12--|
3|-----------------------------------------------------|
4|-----------------------------------------------------|
5|-----------------------------------------------------|
6|-----------------------------------------------------|

1|--------------------------------------------------------¡
2|----10--8--10-10--8--10-10--12-13-12-12--10-10--7--8-8--|
3|--------------------------------------------------------|
4|--------------------------------------------------------|
5|--------------------------------------------------------|
6|--------------------------------------------------------|

1|--------------------------------------------------|
2|-------8--8--7--8--10--7--8--10--12--8--10--12--13|
3|--7-7---------------------------------------------|
4|--------------------------------------------------|
5|--------------------------------------------------|
6|--------------------------------------------------|

1|--------------------------------------------------------|
2|--13--13--12--10--8--7--10--8--7--8--10--12--13--10--8--|
3|--------------------------------------------------------|
4|--------------------------------------------------------|
5|--------------------------------------------------------|
6|--------------------------------------------------------|

 

 

Tags: ,

One Response to “Las Mañanitas, Requinto,Acorde Guitarra, Letra Tabladura, Cancionero Tuna,”

  1. ANDRES VITE VALDERRABANO dice:

    ESTA MUY BIEN LA CANCION Y SUENA SUPER GRAN CANCION

Leave a Reply

Volver a Cancionero



contador de visitas