Volver a Cancionero



Los Dos (Requinto) (Acorde guitarra) (Letra Tabulado) Cancionero Tuna (Tablaturas)


Los Dos 

Autor:Simón Lan, Alfredo Gil

Interpretan: Trio Los panchos

Tuna España (Don Dudo)     www.TunaEspana.com    www.TunaEspaña.es

Este es uno de los requintos mas sencillos de los 
panchos, el tab es claro no tiene errores.

__      
  \                                       
   1|---7-9-10--7---------7-9---------------
) 2|-------------8----10-----10--7---------
   3|---------------9---------------8-------
   4|---------------------------------------
) 5|---------------------------------------
   6|---------------------------------------
__/

      
  \                                       
   1|----------------7-----7---------------2----
) 2|----7----7-8-10-----8--8-----2-3-2--2--5-3-
   3|------10---------------------------5-------
   4|-------------------------------------------
) 5|-------------------------------------------
   6|-------------------------------------------
__/
A       Bm C#m         Cm          Bm   E7 Bm      E7
Te seguiré,   hasta el fin de este mundo,  te seguiré,

                 A
con este amor profundo;

                 Bm        C#m       Cdim      Bm E7
sólo a tí entregaré el corazón, mi cariño y mi fé,

      Bm      F#7         Bm   E7         A C#m Cm Bm E7
y por nada ni nadie en el mundo  te olvidaré.

A       Bm C#m     Cm        Bm   E7 Bm             D
Yo te daré,  de mi vida el anhelo,   y tu serás ese faro

   C#7
de luz,

D           Cdim              A         G7     F#7
luna de miel,   para los dos, siempre será mi amor,

        Bm                  E7       A
y en un sueño viviremos los dos, los dos.

Este es el intro de de la rola en LA mayor.

6\——————————————
5\——————————————
4\—————————————4–
3\————-4————-3———–4–
2\———–3————-2—-1-2-0—3—
1\–2-4-5–2——0-2-4–0————2—–

6\——————————————
5\——————————————
4\——————————————
3\-2-1—–2-1-2————————-4–
2\—–2-0——-2———————3—-
1\—————–0-4-1–2-4-5–2-5-2——

6\——————————————
5\——————————————
4\————————————-4—-
3\—————-3——————–4—-
2\————–2—-2-1-2-3-4——-3——
1\-0-2-4–0-4-0—————-0-1-2——–

6\——————————————
5\——————————————
4\————–2—————————
3\-2-1—–2-1–2—————————
2\—–2-0——2—————————
1\——————————————

OTRO Req

[xx]= tremolo.

–10–12–13–10—————-10–12–[10]————————-
——————11——–13———-[13]–10———————
———————-12————————–11—————–
———————————————————————
———————————————————————
———————————————————————

————–10—————————————————–
–10–11–13——11–[11]——————-10–8——————-
———————-[12]–10–9–9–8–9———-10–9–10——–
———————————————————————
———————————————————————
———————————————————————

OTRO Req

E----------------------------------------------------------
A----------------------------------------------------------
D-------------------------------------7--------------------
G-----------7-----------6-----------7-------------------5--
B---------6---8-----8-5---5-6-8---6-1-0---3-1-0-1---8---5--
e-5-7-8-5-------5-7-------------5-------0---------0---7-5-5

-----------------------------------------------------------
-----------------------------------------------------------
--------------------------------------------------7--------
-------------7----------------6---8---------------7--------
-----------6----8-----8---8-5---5---5-6-7-8-----6---1-0---3
-7-8-5-8-5--------5-7---7-------------------4-5---------0—

-------------
-----3-------
-------2-----
---------0---
-1-0-------1-
-------------

Leave a Reply

Volver a Cancionero