Volver a Cancionero



La Malagueña de Elpidio, Requinto,Trio Los Panchos,,Acorde Guitarra, Letra Tabladura, Cancionero Tuna


 

La Malagueña

 

Ritmo Huapango

Autor: Elpidio Ramirez

Interpretan: Trio Los panchos, Placido Domingo, Javier Solis

Tuna España (Don Dudo)

00000 TunaEspaña Malagueña


Am          E7   Am                        G7
Que bonitos ojos tienes debajo de esas dos cejas
C      F                 E7
debajo de esas dos cejas que bonitos ojos tienes
Am        E7     Am                       G7
ellos me quieren mirar pero si tu no los dejas
C    F                  E7
pero si tu no los dejas ni si quiera parpadear
Am                           G7
(malague..ña salerosa besar tu labios quisie..ra
C    F             E7
besar tus labios quisiera malagueña salerosa
Am                         G7
y decir..te niña hermosa que eres linda y hechizera
C    F                     E7
que eres linda y hechizera  como el candor de una rosa)
Am      E7          Am                         G7
con los ojos me anunciabas que me amabas tiernamente
C      F                   E7
que amabas tiernamente con los ojos me anunciabas
Am      E7        Am                          G7
ingrata me traicionabas cuando de ti estaba ausente
C    F                  E7
cuando de ti estaba ausente de mi pasión te burlabas
Am     E7           Am                   G7
si por pobre me desprecias te concedo la razón
C  F                   E7
yo te concedo razón si por pobre me desprecias
Am        E7       Am                       G7
yo no te ofrezco riquezas te ofrezco mi corazón
C   F                 E7
te ofrezco mi corazón a cambio de mi pobreza.

(-)

Requinto inicial

          E7\       E7\     E7\  golpe-ritmo Am
1------------------------------------------
2----------0---------0-------0-------------
3----1---1-----1---1----1---1---2-1-2------
4---2---2-----2---2----2---2---------------
                                 G7
1----------0--------0----------0------------
2-----1--1----1---1-----1----1----3-2-3-----
3----2--2----2--2-----2----2----------------
4-------------------------------------------
                                         C
1------------------------------------------------
2-----0----0--3---0---0--3---0----0--3----1--0--1
3---0----0------0---0------0----0----------------
4-------------------------------------------------
         F                                         E7
1--------0-------------------------0--1-0------------
2---1--3---3--1--0--------0--0-------------3--1--0---
3-------------------2--1-------1---------------------2
4---------------------------------2-------------------

se repite

 

 TunaEspaña, Tuna Universitaria, Pasacalles Tuna, Musica Tuna, Cancionero Tuna, dism
Otra version en Tono MI

            Bb          Ebm          C#        B        Bb
E|----------6-----------6------------9---------7--------6---|
B|----------6-----------7------------9---------7--------6---|
G|----------7-----------8-----------10--10-----8--8-----7---|
D|----------8------6----8----6-8----11-----11--9----9---8---|
A|-6-8-9-6--8--8-9---8--6--9-----9--11---------9--------8---|
E|----------6-----------6------------9---------7--------6---|

                Ebm
E|--------------6-------|
B|--------------7-------|
G|--------------8-------|
D|-8-9-8-6------8-------|
A|---------9-8--6-------|
E|--------------6-------|

Ebm
Que bonitos ojos tienes
                      C#
debajo de esas dos cejas
                      F#
debajo de esas dos cejas
B                    Bb
que bonitos ojos tienes.

Ebm
Ellos me quieren mirar
                     C#
pero si tu no los dejas
                    F#
pero si tu no los dejas
B                Bb    (Riff 1)
ni siquiera parpadear

(PARTE I)
              Ebm
Malagueña salerosa
                     C#
besar tus labios quisiera
                     F#
besar tus labios quisiera
B              Bb
malagueña salerosa
                 Ebm
y decirte niña hermosa

(PARTE II)
          (Riff 2)            C#
que eres li........nda y hechizera
                      F#
que eres linda y hechicera
          B            Bb
como el candor de una rosa
                       Ebm
como el candor de una rosa

INTERMEDIO
Bb                            Ebm                                 C#
E|---------------------------------------------6---------6---------6-------
B|---------6--------6---------6----------7---7-----7---7-----7---7---9-7-9-
G|---7---7----7---7-----7---7---8-7-8--8---8-----8---8-----8---8-----------
D|-8---8----8---8-----8---8------------------------------------------------
A|-------------------------------------------------------------------------
E|-------------------------------------------------------------------------
                                                                  Em
E|---------4---------4-----4------------------------6--6-7-6--------6-|
B|---6---6-----6---6-----6---7-6-7----6-7-6-7-9-7-9-6--6-----9-7-6--7-|
G|-6---6-----6---6-----6------------8-------------------------------8-|
D|------------------------------------------------------------------8-|
A|------------------------------------------------------------------6-|
E|------------------------------------------------------------------6-|

Ebm
Si por pobre me desprecias
                 C#
yo te concedo razon
                F#
yo te concedo razon
B                   Bb
si por pobre me desprecias.

Ebm
Yo no te ofresco riqueza
                   C#
te ofresco mi corazon
                   F#
te ofresco mi corazon
B                 Bbm    (Riff 1)
a cambio de mi pobreza

Parte I
Parte II
(Riff 3)para terminar

(Riff1)
  Ebm                          Ebm
E|-6--10--13--16---13--16--13--6----|
B|----------------------------------|
G|----------------------------------|

(Riff 2)
  Ebm                                         C#
E|-----6--11--13-14-11--6-7-6--------------------|
B|---7------------------------9-7-9-7---6-7-6----|
G|-8----------------------------------8-------6--|
D|-----------------------------------------------|

(Riff 3)
              Ebm
E|-6-7-6--------6----|
B|-6-----9-7-6--7----|
G|--------------8----|
D|--------------8----|
A|--------------6----|
E|--------------6----|

el ritmo es de huapango, esta canción es para tocarse con
dos guitarras,

TunaEspaña, Tuna España, Cancionero Tuna, Musica Tuna, Tuna Dx Santiago de Compostela

 
Otra version Tono RE
Intro   Dm  A7  Dm

(capo 5º traste)
      A7          Dm                         C7
e------------------------------------------------------
B-----0-----0-----0--------------1-----1-0-------------
G--1-1---1-1---1-1---2h1-2---2222--2222----2-2-0--0----
D-2-2---2-2---2-2--------------------------------4-----

            F          Bb                           A7            Dm
e-----------------------1h0-----------------------------------------
B-11-33-0-1-3--0-1---1-3----3-1-3h1-0-1h0---------------------------
G------2----------------------------------2-1-1h21------------------
D--------------------------------------------------2—-2-3-2-0-------
A-------------------------------------------------------------3-2-0-

Dm                                          Gm
Que bonitos ojos tienes, debajo de esas dos cejas
 C7                  F       Bb               A7
debajo de esas dos cejas, que bonitos ojos tienes.

Ellos me quieren mirar, pero si tú no los dejas,
pero si tú no los dejas, ni siquiera parpadear.

CORO

A7                  Dm                        C7
Malague-eña salerosa, besar tus labios quisiera
                   F        Bb            A7
be-esar tus labios quisiera, malagueña salerosa,

Y deci-i-irte niña hermosa, que eres linda y hechicera
que eres linda y hechicera, como el candor de una rosa,

Y deci-irte niña hermosa, que eres li-inda y hechicera,
que eres linda y hechicera, como el candor de una rosa,
                          Dm
como el carmí-i-in de una rosa.

Leave a Reply

Volver a Cancionero