Volver a Cancionero



Mar y cielo, Acorde Guitarra, Letra Tabladura, Cancionero Tuna, Bolero, Requinto


.

Mar y cielo

 

[Tube]https://www.youtube.com/watch?v=kJ1ZP2VS2XU[/Tube]

 

Autor: Julito Rodriguez Reyes

Interpretan: Trio Los panchos, Hermanos Gil, Los Sabandeños

TunaEspaña (Don Dudo) www.TunaEspaña.es  

Ritmo:Bolero


TunaEspaña, Tunas Españolas, Tunas Universitarias, Universidad, Mafaldo, Don Musiquito, Don Dudo, Don chulin , recorta, PONER

Am 
Me tienes 
             E7 
pero de nada te vale 

soy tuyo 
                   Am 
porque lo dicta un papel. 

 A7 
Mi vida 
              Dm 
la controlan las leyes 
                Am 
pero en mi corazón 
                       B7 
que es el que siente amor  
     E7      Am 
tan sólo mando yo. 

             E7 
El mar y el cielo 
                  Am 
se ven igual de azules  
           E7 
y en la distancia 
               Am 
parece que se unen, 
                 A7 
mejor es que recuerdes 
                          Dm  
que el cielo siempre es cielo 
                   B7 
que nunca, nunca nunca, 
                E7 
el mar lo alcanzará. 

    Dm 
Permíteme igualarme  
        Am 
con el cielo 
      E7 
que a ti te corresponde  
        Am 
ser el mar. 

 

A —————————————————————-
E —-0–1–1—–0–1–1——-0–1–1——0–1–1—0–1–0–
C –2———–2————2————-2——————–
G ————————————————————–
D ————————————————————–
A ————————————————————–

A ——————————————————————-0-
E –0–1–3–3—0–1–3–3—0–1–3–3—0–1–3–3—1–0–1–3—
C ——————————————————————-
G ——————————————————————-
D ——————————————————————-
A ——————————————————————-

A —————————————————————–0–1-
E –2–3–5–5—2–3–5–5—2–3–5–5—-2–3–5–5—3–2–3——
C ——————————————————————–
G ——————————————————————–
D ——————————————————————–
A ——————————————————————–

A ——————————0–5–7–8–7–5–8–7–5–4–7–5——
E –3–1–0–3–1–0—-0–1——————————————
C ——————–2———————————————–
G ——————————————————————–
D ——————————————————————–
A ——————————————————————–

E----------------------------------------------------------
A----------------------------------------------------------
D----------------------------------------------------------
G-2-------2-----2------------------------------------------
B---0-1-1---0-1---0-1-0-1-0-0-1-3-3-0-1-3-0-1-3-0-1-3-1-3-1
e----------------------------------------------------------

-----------------------------------------------------------
-----------------------------------------------------------
-----------------------------------------------------------
-----------------------------------------------------------
-0-1-3---2-3---2-3---2-3---2-3---3---3-2-3-----3-1-0-3-1-0-
-------0-----0-----0-----0-----0---0-------0-1-------------

-------------------------------
-------------------------------
-------------------------------
2------------------------------     E7  Em
-0-1---------------------------
-----0-5-7-8-7-5-8-7-5-6-4-6-5

 

[Tube]https://www.youtube.com/watch?v=iOogHogS984[/Tube]


TONO E

 

   Em                      B7                                   Em
Me tienes, pero de nada te vale, soy tuyo, porque lo dicta un papel,

   E7                    Am                    Em
mi vida la controlan las leyes, pero en mi corazón, que es el que

       F#7      B7         Em
siente amor tan sólo mando yo.

            B7                    Em                 B7
El mar y el cielo se ven igual de azules, y en la distancia, parece

       Em
que se unen;

               E7                              Am
mejor es que recuerdes que el cielo es siempre cielo, que nunca, nunca,

F#7                     B7     Am                      Em           B7
nunca, el mar lo alcanzará, permíteme igualarme con el cielo, que a ti

                      Em
te corresponde ser el mar.

 

-
TunaEspaña, Musica de Tuna, Doce Cascabeles, canciones de tuna, Cancionero tuna,pasacalle de Tuna, certamen tuna, Tuna Universitaria, Tuna España, Los Sabandeño

Tags: , , , , , , , , , , , , , , , ,

Leave a Reply

Volver a Cancionero