Volver a Cancionero



No trates de mentir (Tabulado) Requinto


No trates de mentir
Autor:  Nick Jiménez
Interpretan:  Trio Los Panchos

 

                D                      B7
No trates de mentir, diciendo que es a mí, quien amas

      Em   A7
con pasión,

                Em                   A7
no trates de mentir, que nunca engañarás tu propio

    D    Bdim Em A7
corazón;

          D          B7            Em
Si tienes duda de volver, debes pensarlo bien,

       A7                        D           F#m Fm Em
así después no pasarás, por otro cruel desdén.

   A7            D                    B7
No trates de engañar, y por temor a herir ocultes tu

   Em
maldad,

                   D      Cdim          Em      A7
si bien no he de reir, tampoco he de llorar, no trates

      D
de mentir.

 

 

Afinación :Requinto con capo cuarto Traste C# F# B E G# C# 	

|0-5-7-8-7-5-0-------------|------2-5-3-2-0-------|--0-----0-5-3-2-0---------------|
|--------------1-0---0-1-0-|1-2-3-----------3-1-0-|0---3-2-----------3-1-----------|
|------------------2-------|----------------------|----------------------2---------|
|--------------------------|----------------------|------------------------4-0-2-0-|
|--------------------------|----------------------|--------------------------------|
|--------------------------|----------------------|--------------------------------|
                                                                           q s s s  

|----------------|0-5-7-8-7-5-0-------------|------2-5-3-2-0-------|
|----------------|--------------1-0---0-1-0-|1-2-3-----------3-1-0-|
|----------------|------------------2-------|----------------------|
|----------------|--------------------------|----------------------|
|2-1-0-2-2-3-4-5-|--------------------------|----------------------|
|----------------|--------------------------|----------------------|

|--0-----0-5-3-2-0-8-7-5-----0---|--------0------|3-|
|0---3-2-----------------8-7---3-|1---------------|0-|
|--------------------------------|--2---0---------|0-|
|--------------------------------|----4-----4-2-0-|0-|
|--------------------------------|----------------|2-|
|--------------------------------|----------------|3-|
                                                         

 

Comments are closed.

Volver a Cancionero