Volver a Cancionero



Como yo te amo,Acorde Guitarra, Letra Tabladura, Cancionero Tuna


.

Como yo te amo

Autor: Manuel Alejandro, Ana Magdalena

Interpretan: Raphael, Rocio Jurado

TunaEspaña (Don Dudo) www.TunaEspaña.es  

Ritmo:

Enlace Youtube: Pincha aqui para escuchar la cancion

.

TunaEspaña, Don Duracell, Don Cuextiones, Tunas Universitarias, cancionero tuna

Acordes:

  RE#m SOL#m SI   MI   FA#  FA#7
E---6----4----2----0----2----2----
B---7----4----3----0----2----2----
G---8----4----3----1----3----3----
D---8----6----3----2----4----2----
A---6----6----2----2----4----4----
E--------4---------0----2----2----

SI           SI     SOL#m          RE#m
   COMO YO TE AMO...     COMO YO TE AMO...
      MI            SI        MI            SI
   CONVÈNCETE... CONVÈNCETE...  NADIE TE AMARÀ...

SI           SI     SOL#m          RE#m
   COMO YO TE AMO...     COMO YO TE AMO...
     MI          SI
   OLVÌDATE... OLVÌDATE...
MI             SI   RE#m           SOL#m
   NADIE TE AMARÀ...    NADIE TE AMARÁ...
MI       FA#
   NADIE PORQUE

   SI
   YO, TE AMO CON LA FUERZA DE LOS MARES,
 SOL#m
   YO, TE AMO CON EL ÌMPETU DEL VIENTO,
  DO#m                                MI
   YO, TE AMO EN LA DISTANCIA Y EN EL TIEMPO,
  FA#                FA#7
   YO, TE AMO CON MI ALMA Y CON MI CARNE...

   SI
   YO, TE AMO COMO EL NIÑO A SU MAÑANA,
 SOL#m
   YO, TE AMO COMO EL HOMBRE A SU RECUERDO,
  DO#m                            MI
   YO, TE AMO A PURO GRITO Y EN SILENCIO,
  FA#                FA#7
   YO, TE AMO DE UNA FORMA SOBRE HUMANA...

   SI
   YO, TE AMO EN LA ALEGRÍA Y EN EL LLANTO,
 SOL#m
   YO, TE AMO EN EL PELIGRO Y EN LA CALMA,
  DO#m                              MI
   YO, TE AMO CUANDO GRITAS, CUANDO CALLAS,
  FA#                FA#7
   YO, TE AMO TANTO, YO TE AMO TANTO...
   SI
   YO...

(Se toca nuevamente)

Tono DO

   DO   REm REm7  MI   MIm  FA   SOL  SOL7
E---0----1----1----0----0----1----3----1---
B---1----3----1----0----0----1----3----0---
G---0----2----2----1----0----2----0----0---
D---2----0----0----2----2----3----0----0---
A---3--------------2----2----3----2----2---
E------------------0----0----1----3----3---

DO           DO      LAm           MIm
   COMO YO TE AMO...     COMO YO TE AMO...
      FA            DO        FA            DO
   CONVÈNCETE... CONVÈNCETE...  NADIE TE AMARÀ...

DO           DO      LAm           MIm
   COMO YO TE AMO...     COMO YO TE AMO...
     FA          DO
   OLVÌDATE... OLVÌDATE...
FA             DO    MI            LAm
   NADIE TE AMARÀ...    NADIE TE AMARÁ...
FA       SOL
   NADIE PORQUE

   DO
   YO, TE AMO CON LA FUERZA DE LOS MARES,
  LAm
   YO, TE AMO CON EL ÌMPETU DEL VIENTO,
  REm                  REm7
   YO, TE AMO EN LA DISTANCIA Y EN EL TIEMPO,
  SOL                SOL7
   YO, TE AMO CON MI ALMA Y CON MI CARNE...

   DO
   YO, TE AMO COMO EL NIÑO A SU MAÑANA,
  LAm
   YO, TE AMO COMO EL HOMBRE A SU RECUERDO,
  REm                REm7
   YO, TE AMO A PURO GRITO Y EN SILENCIO,
  SOL                SOL7
   YO, TE AMO DE UNA FORMA SOBRE HUMANA...

   DO
   YO, TE AMO EN LA ALEGRÍA Y EN EL LLANTO,
  LAm
   YO, TE AMO EN EL PELIGRO Y EN LA CALMA,
  REm                               FA
   YO, TE AMO CUANDO GRITAS, CUANDO CALLAS,
  SOL                SOL7
   YO, TE AMO TANTO, YO TE AMO TANTO...
   DO
   YO...


TONO SOL

   SOL  MIm  SIm  DO   SI7  RE   LAm  LAm7 RE7
E---3----0----2----0----2----2----0----0----2----
B---3----0----3----1----0----3----1----1----1----
G---0----0----4----0----2----2----2----0----2----
D---0----2----4----2----1----0----2----2----0----
A---2----2----2----3----2---------0----0---------
E---3----0---------------------------------------

SOL          SOL     MIm           SIm
   COMO YO TE AMO...     COMO YO TE AMO...
      DO            SOL       DO            SOL
   CONVÈNCETE... CONVÈNCETE...   NADIE TE AMARÀ...

SOL          SOL     MIm           SIm
   COMO YO TE AMO...     COMO YO TE AMO...
     DO          SOL
   OLVÌDATE... OLVÌDATE...
DO             SOL   SI7            MIm
   NADIE TE AMARÀ...    NADIE TE AMARÁ...
DO       RE
   NADIE PORQUE

  SOL
   YO, TE AMO CON LA FUERZA DE LOS MARES,
  MIm
   YO, TE AMO CON EL ÌMPETU DEL VIENTO,
  LAm                 LAm7            DO
   YO, TE AMO EN LA DISTANCIA Y EN EL TIEMPO,
   RE                RE7
   YO, TE AMO CON MI ALMA Y CON MI CARNE...

  SOL
   YO, TE AMO COMO EL NIÑO A SU MAÑANA,
  MIm
   YO, TE AMO COMO EL HOMBRE A SU RECUERDO,
  LAm               LAm7          DO
   YO, TE AMO A PURO GRITO Y EN SILENCIO,
   RE                RE7
   YO, TE AMO DE UNA FORMA SOBRE HUMANA...

  SOL
   YO, TE AMO EN LA ALEGRÍA Y EN EL LLANTO,
  MIm
   YO, TE AMO EN EL PELIGRO Y EN LA CALMA,
  LAm               LAm7            DO
   YO, TE AMO CUANDO GRITAS, CUANDO CALLAS,
   RE                RE7
   YO, TE AMO TANTO, YO TE AMO TANTO...
  SOL
   YO...
INTRO                                              
         A                          E  A
E|--------0----------|-------0----------------0-----------------0----------
B|--0---2----0---2---|-0---2----0---2---0---2----0---2----0---2----0---2---
G|-----------------2-|-----------------------------------------------------
D|----2--------2-----|---2--------2-------2--------2--------2--------2-----  
A|-------------------|------------------0--------0--------0--------0-------
E|-------------------|----------------0-----------------0-----------------0

        A                             F#m
E|--------0----------|-------0----------------2---------2------------------
B|--0---2----0---2---|-0---2----0---2---2---2-----2---2--------------------
G|-------------------|-----------------------------------------------------
D|----2--------2-----|---2--------2-------4---------4----------------------
A|--0--------0-------|-0--------0------------------------------------------
E|-----------------0-|----------------0-2---------2------------------------
                       Como yo te amo              Como yo te - - -

    C#m                   D                   Bm
E|-------4--------4--|---------2--------2----------2---------2-------------
B|-5---5----5---5----|---3---3----3---3------3---3-----3---3---------------
G|-------------------|-----2--------2--------------------------------------
D|---6--------6------|---0--------0------------4---------4-----------------
A|-4--------4--------|-----------------------2---------2-------------------
E|-------------------|-----------------------------------------------------
    amo              convéncete           convéncete

   E                 A
E|-------0-----------------0----------------0--------|
B|-0---2----0---2----0---2----0--2----0---2----0--2--|
G|--------------------------------------------------2|
D|---2--------2---2----2--------2-------2--------2---|
A|-------------------0--------0-------0--------0-----|
E|-0--------0----------------------0-----------------|
           Nadie    te amara

           A   F#m      
Como yo te amo                         
         C#m    D         Bm       E
Como yo te amo  olvídate  olvídate
         A     C#7      F#m
Nadie te amará nadie te amara
E
Nadie porque yo . . .
A
Yo te amo con la fuerza de los mares
F#m
Yo te amo con el ímpetu del viento 
Bm
Yo te amo en la distancia y en el tiempo 
E
Yo te amo con mi alma y con mi carne
A
Yo te amo como al niño en las mañanas 

F#m
Yo te amo como al hombre a su recuerdo
Bm
Yo te amo a puro grito y en silencio 
E
Yo te amo de una forma sobre humana 
A
Yo te amo en la alegría y en el llanto

F#m
Yo te amo en el peligro y en la calma 
Bm
Yo te amo cuando gritas cuando callas 
E
Yo te amo tanto yo te amo tanto yo      

(PEQUEÑO SOLO ACOMPAÑADO POR A F#m Bm E)

    A                   F#m
E|-------------------------------------------------------|
B|--2-0-2-0-2-0-2-0---0-2-3-2--0-2-0-2-0-2-0---0-2-3-0---|
G|------------------2------------------------2-----------|
    Bm                 E
E|------------------------------------------|
B|----------------------2-------------------|
G|--2-4-2-4-2-4-2-1-2-4---4---2-4-2-4-2-4---|

            A   F#m            
como yo te amo
           C#m       D         Bm      E
Como yo te amo  convéncete convéncete 
         A
Nadie te amara
               A
Que como yo te amo
           C#m    D        Bm     E
Como yo te amo olvídate olvídate 
      A        C#7      F#m
Nadie te amará nadie te amara 
 E           A
nadie porque yo . . .
 

 

Tags: , , , , , , ,

Comments are closed.

Volver a Cancionero