Volver a Cancionero



El Golpe,Acorde Guitarra, Letra Tabladura, (Instrumental)


.

El Golpe

Autor: Scott Joplin

Interpretan:TunaEspaña

TunaEspaña, Comida Navidad, 2013,t2, Certamen Tuna, musica tuna, dism

TunaEspaña (Don Dudo) www.TunaEspaña.es  

Ritmo: tango

.

e|---0-----------|--------------|------------------|
b|-3---1-----0---|--------------|------------------|
g|--------2----0-|--------------|------------------|
D|---------------|-0-2----------|-0-2--------------|
A|---------------|-----3-0--2---|-----3-0--2-0-----|
E|---------------|------------3-|--------------4-3-|
     ____
     |C3|
e|---3---|-----||----------------|---|-------|-0-----0-----|-----|
b|---3---|-----||-----1---1---1--|---|-1-3-4-|---1-3---0-3-|-1---|
g|---4---|-----||o---------------|-2-|-------|-0-----0-----|---0-|
D|-------|-0-1-||o--2---2---2----|-3-|-2-3-4-|---2-3-----3-|---2-|
A|-------|-----||----------------|---|-------|-------------|-----|
E|-------|-----||----------------|---|-------|-------------|-----|
                       ____                       ____
                       |C2|                       |C3|
e|--------------------|-----|---------0--------|-------|------------------|
b|-------1---1---1----|-----|-------1-1--3-1---|---3---|-------1---1---1--|
g|------------------2-|--2--|-----2----------2-|---4---|------------------|
D|-0-1-2---2---2----3-|--2--|-0-4----------3---|---3---|-0-1-2---2---2----|
A|--------------------|--3--|------------------|-------|------------------|
E|--------------------|-----|------------------|-------|------------------|

e|-----------0-----0------|---------|-0-----0--------|-0-----0--------|
b|-----1-3-4---1-3----0-3-|-1---1-3-|---1-3----1-3-1-|---1-3----1-3-1-|
g|-2---------0-----0------|---------|-0-----0--------|----------------|
D|-3---2-3-4---2-3------3-|-2-------|----------------|-3-----3--------|
A|------------------------|---------|----------------|----------------|
E|------------------------|---------|----------------|----------------|
                ____________  ___________
                |1ª vez    |  |2ª vez   |
e|-0----0------|------------||-----0-1-2-|-3-5-3--0-1-2-3-5-3-|-0-------------0-------|
b|---1-3---0-3-|-1----------||-1---------|-5-5-5--------5-5-5-|---1-----0-1-3-1-3-1-3-|
g|-0-----------|-----------o||-----------|-5-5-5--------5-5-5-|-----0-2---------------|
D|------3------|-2----0-1--o||-2---------|--------------------|-----------------------|
A|-------------|------------||-----------|--------------------|-----------------------|
E|-------------|------------||-----------|--------------------|-----------------------|

e|-0-1-2-3-5-3-0-1-|-3-5-3--0-1-2-|-3-5-3--3-5-6-|-7-7-7---------|-3---0-1-2-|-3-5-3--0-1-2-|
b|-1-------0-------|-5-5-5--------|-5-5-5--------|-8-8-7--10-7---|-3---------|--------------|
g|-----------------|-5-5-5--------|-5-5-5--------|-------------7-|-4---------|--------------|
D|-----------------|--------------|--------------|---------------|-----------|--------------|
A|-----------------|--------------|--------------|---------------|-----------|--------------|
E|-----------------|--------------|--------------|---------------|-----------|--------------|

e|-3-5-3--0-------------|-0-----------------|------------------|-0-3--0---------0---|---------|
b|-5-5-5----1-----0-1-3-|---3-1-3-1---------|-1---1----1-----1-|---5----1-----1---3-|-1-------|
g|-5-5-5------0-2-------|-1---------0-0---0-|---2----2---2-0---|----------0-2-------|-0------o|
D|----------------------|-----------2---4---|-0---1------------|------------4-------|-2--0-1-o|
A|----------------------|-------------------|------------------|--------------------|---------|
E|----------------------|-------------------|------------------|--------------------|---------|

e|-1---1-3-0-----0-------|-0-----0--------0-----0--|----------0-----------|---0----------|
b|-----------1-3---1-3-1-|---1-3----1-3-1---1-3----|-0-3-1--3---1-----0---|-3---1----0---|
g|-2-------0-----0-------|----------------0--------|--------------2-2---0-|-------2----0-|
D|-----------------------|-3-----3--------------3--|---3-2----------------|--------------|
A|-----------------------|-------------------------|----------------------|--------------|
E|-----------------------|-------------------------|----------------------|--------------|
_____________________
|C3
e|-------------------|
b|-3-3-3--5-3-1---1--|
g|-4-4-4--4-4-0-0----|
D|-3-3-3--3-3-2---2--|
A|-------------------|
E|-------------------|

 

Tags: , , , , , , , , , ,

Comments are closed.

Volver a Cancionero