Volver a Cancionero



Contigo (tabulado) Requinto



Contigo

Interprete: Los Panchos

Autor: Claudio Estrada

Tuna España (Don Dudo)     www.TunaEspaña.es    www.TunaEspana.com

Intro (requinto):

1|--0-0-0-3-0-------|-----------0-1-|-3-1-0---------------|

2|------------1-0---|-----0-1-3-----|-------3-1-0---------|

3|----------------2-|-1-2-----------|-------------2-1-0---|

4|------------------|---------------|---------------------|

5|------------------|---------------|---------------------|

6|------------------|---------------|---------------------|

1|--3-5-3-5-3-1-0---0-----|-------0-1-0-1-0-1-2-1-2-3-----|

2|----------------3---3-1-|-0-1-3-------------------------|

3|------------------------|-------------------------------|

4|------------------------|-------------------------------|

5|------------------------|-------------------------------|

6|------------------------|-------------------------------|

     D                      F#m

Tus besos se llegaron a recrear

           Em

aqui en mi boca,

    A7

llenando de ilusion y de pasion

         D

mi vida loca.

Las horas mas felices de mi amor

          Em     A7

fueron contigo,   

    Em                            A7

por eso es que mi alma siempre extrana 

           D     Em  A7 D

el dulce alivio.

                            F#m

Te puedo yo jurar ante un altar

           Em    A7

mi amor sincero, 

  Em                         A7

a todo el mundo le puedes contar

             D

que si te quiero.

    D7

Tus labios me ensenaron a sentir

              D

lo que es ternura,

  A7

y no me cansare de bendecir

          D

tanta dulzura.

Comments are closed.

Volver a Cancionero