Volver a Cancionero



Alma Corazon y Vida,Requinto Los Panchos ,Acorde Guitarra, Letra Tabladura, Cancionero Tuna, Peru Criollo


Alma corazón y vida

TunaEspaña-Imposicion-Beca-Cancionero-Tuna-Musica-de-tuna-Universidad-Canciones-de-Tuna

Autor: Adrián Flores Albán

Interpretan: Trio Los panchos, Fernando Albuerne, Trio Siboney, Tania Libertad, Trio Vegabajeño, Los Embajadores criollos

Ritmo:Vals Criollo Peruano

Don Dudo (TunaEspaña)

 



INTRO:
Clave: La Menor

e:————————8-8—-8—-|——————7-7—-7—|
B:–10-10-10-10—10—10—–10—10-|–8-8-8-8—8—8——8—8-|
G:————–9—-9—————-|———-7—7————–|
D:————————————|—————————–|
A:————————————|—————————–|
E:————————————|—————————–|

e:——————5-5—-5—-|—————–4-4—-4—-|
B:–6-6-6-6—6—6——6—6–|-5-5-5-5—5—5——5—5–|
G:———-5—5—————|———4—4—————|
D:——————————|—————————–|
A:——————————|—————————–|
E:——————————|—————————–|

e:——————–1—–1———-|——0-5-4-7-5——-|
B:–0-1-2-3-3—3—3—–3—3–0-3-1-|—-1—————–|
G:————2—2——————–|–2——————-|
D:————————————-|———————-|
A:————————————-|———————-|
E:————————————-|———————-|

e:–0—1–0—————————|
B:—-3——3-1———————–|
G:—————2-1—————2—|
D:——————-3-2-0——-3—–|
A:————————-3-2-0——-|

 

 

Guitarra

Am A7
Recuerdo aquella vez
Dm
que yo te cono
Am
recuerdo aquella tarde
E7               Am
pero no me acuerdo ni como te vi.

Am A7
Pero si te di
Dm
que yo me enamo
Am
de esos tus lindos ojos
E7                 Am
y tus labios rojos que no olvida.

Am
Oye esta canción que lleva
G
alma, corazón y vida
F                               E7
estas tres cositas nada más te doy.

Am
Porque no tengo fortuna
G
estas tres cosas te ofrezco,
F                             E7
alma, corazón y vida, y nada más.

Dm
Alma para conquistarte
Am
corazón para quererte más
E7                        Am A7
vida para vivirla junto a ti.

Dm
Alma para conquistarte
Am
corazón para quererte más
E7                        Am
vida para vivirla junto a ti.

Introducción: Am, G, F, E7, Dm, Am, E7, Am

TunaEspaña, Rincon de la Victoria, Cancionero Tuna, Don Dudo, 06, dism

CIFRADOS

|-0---0---0-3-2-0-------------2-0---------------0---------------------------------------
|---0---0---------3-----3---3-----3-1-----1---1---3-1-0-------------1-0-------------0---
|---------------------3---3-------------1---1-------------3-3-3-3-3-----3-1-1-1-1-1---3-
|---------------------------------------------------------------------------------------

|-----------------------------0---
|-------------------------0---0---
|-1-0--0-0-0-0--3-1-0---1-----1---
|---------------------3-------3---

Recuerdo_aquella vez, que yo te conocí, recuerdo_aquella tarde pero no me_acuerdo ni
|--------------------------------------0------------------------------------------------
|-------------------0-----0--1--3--1-0-------0----1---3--1--0-------0--1---0------------
|----0----1---0----------------------------3-------------------1--3-----------3---0--1--
|--3-------------3----------------------------------------------------------------------

cómo te vi. Pero si te diré que yo me_enamoré de_esos tus lindos ojos y tus labios
|---------------------------------------------0-----------------------------------------
|----0----------------------0---0--1---3--1-3--------0---1---3--1--0-------0---1-0------
|--3----3--1-----0--1--0--------------------------3------------------1--3---------------
|--------------3----------3-------------------------------------------------------------

rojos que no_olvidaré.
|--------------------------
|-----------------0--------
|--3-0----1---3-----3-1----
|--------------------------

Oye_esta canción que lleva, alma, corazón y vida, estas tres cositas nada más te doy.
|-0--0-------------------0-0------------------------------------------------------------
|--------0--0--------0--------3--3-------------3-3--1--1----------------1-0--3---1--0---
|--------------1---------------------3-3-0--3---------------1---1---1-------------------
|-----------------------------------------------------------------3---------------------

Porque no tengo fortuna, estas tres cosas te ofrezco, alma, corazón y vida_y nada más.
|--0---0--------------0-0---------------------------------------------------------------
|---------0--0-----0-------3--3-------------------3--3--1--1-------------1--0---3-1--0--
|---------------1------------------3---3-0---3-----------------1-1---1------------------
|------------------------------------------------------------------3--------------------

Alma para conquistarte, corazón para quererte y vida para vivirla junto_a ti_i. (BIS)
|-------------------0--0-------------------0--0-0--------------------0---2---0-1----
|----------------1-----------------------0---------4-4--2-4--2-4--4-----------(1ªvez)
|-3--3--3-3--3-------------1-1-1---1-1----------------------------------------------
|-----------------------------------------------------------------------------------
E:————————————-|

Tags: , , , , , , , , , , , , , , , , , ,

Comments are closed.

Volver a Cancionero