Volver a Cancionero



Princesa de la Noche (Requinto original Trio Los Panchos) (Letra Tablatura) cancionero Tuna (Bolero)


Princesa de la Noche

Autor: Chucho Navarro

Interpretan: Trio Los panchos

 TunaEspaña (Don Dudo) www.TunaEspaña.es   www.TunaEspana.com

Ritmo: Bolero

Folklore

Enlace Youtube: Pinche Aqui para escuchar la Canción


INTRO:
Clave: Sol Mayor

e:--------5-7-5-------------------5--|-------5-7-8-8---7-8-7-5-------------2-0-------3----|
B:--5-7-8-------8-7-7---5-7-5---5----|-5-7-8-------------------8-7-5-5---3-----3-2-3------|
G:----------------------------8------|----------------------------------------------------|
D:-----------------------------------|----------------------------------------------------|
A:-----------------------------------|----------------------------------------------------|
E:-----------------------------------|----------------------------------------------------|

e:----2-0------------------0-1-1-----|-0-1-0-1-0---------------------------0--------------|
B:--3-----3-2-1-0----0-1-3-----------|-----------3-1-0-1-0----0---------------------------|
G:-----------------------------------|---------------------------2---2-1-2----------------|
D:-----------------------------------|----------------------------------------------------|
A:-----------------------------------|----------------------------------------------------|
E:-----------------------------------|----------------------------------------------------|

e:----------------0-------0-2-----0---7---5----|------2-0---------------------------------|
B:-----0-1--0-1-3-----1-3-------3---7---7---8--|----0-----3-1-0---------------------------|
G:-1-2-----------------------------------------|--3-------------2-0-----------------------|
D:---------------------------------------------|--------------------4-2-1-0---------------|
A:---------------------------------------------|------------------------------------------|

Tags: , ,

Comments are closed.

Volver a Cancionero