Volver a Cancionero



Todos Vuelven ,Acorde Guitarra, Letra Tabladura, Cancionero Tuna, Peru Criollo


.

Todos Vuelven

Tuna España , Tunas Universitarias, Tunas y estudiantinas, cancionero tuna, certamen Internacional Tuna Costa Calida, buen tunar, Jose Fernando, Canciones de Tuna

Autor:

Interpretan: TunaEspaña,Los Morochucos

TunaEspaña (Don Dudo) www.TunaEspaña.es

Ritmo:Musica Criolla, Valsecito Peruano

.

(SOLO)

|--9/10----------10----------10-----------|
|-------11-10-------11-10-------10--------|
|-------------12----------12-------12-10--|
|-----------------------------------------|
|-----------------------------------------|
|-----------------------------------------|

|-------------------------------9-10--10--|
|-----------------------10-12---------10--|
|--7-9-10--10--12-10-9----------------10--|
|-------------------------------------12--|
|-------------------------------------12--|
|-------------------------------------10--|

         Dm          A7            Dm
Todos vuelven a la tierra en que nacieron
      D7                      Gm
Al embrujo incomparable de su sol
                   A7           Dm
Todos vuelven al rincón donde vivieron
 A#7           A7               A
Donde acoso florecio mas de un amor.

          Dm       A7         Dm
Bajo el arbol solitario del silencio
          D7                 Gm
Cuantas veces nos ponemos a soñar
                      A7         Dm
Todos vuelven por la ruta del recuerdo
 A#7                A7            Dm
Pero el tiempo del amor no vuelve mas.

    Dm       Gm          Dm
El aire que trae en sus manos
    Gm        Dm       Gm      Dm D7
La flor del pasado su aroma de ayer.

     F        C7       F
Nos dice muy quedo al oido
     C7      F          C7    F A7
Su canto aprendido del atardecer.

    Dm      Gm      Dm
Nos dice su voz misteriosa
    Gm        Dm
De nardo y de rosa
    Gm       Dm D7
De luna y de miel.

     Gm                   Dm
Que santo el amor de la tierra
                 A7
Que triste la ausencia
             Dm
Que deja el ayer.

(X2)

Tags: , , , , , , , , , , , , , ,

Comments are closed.

Volver a Cancionero