Volver a Cancionero



Contigo Perú,Acorde Guitarra, Letra Tabladura, Cancionero Tuna,Musica Criolla


.

Contigo Perú

Autor:

TunaEspaña, Don Dudo, Asilo Ancianos, cancionero tuna, musica de tuna, certamen tuna, Juntamento, canciones de tuna, musica de tuna

Interpretan: TunaEspaña, zambo cavero

TunaEspaña (Don Dudo) www.TunaEspaña.es

Ritmo: Musica Criolla

.

Dm: 132000
A7: 020200
Gm: 333553
D: 232000
G: 330023

Intro
e|-5-3-1-----6-5-3-0--5-3-1-----6-5-3-0--|
B|--6-5-3-2---8-6---3--6-5-3-2---8-6---3-|
G|---------2------------------2----------|
D|---------------------------------------|
A|---------------------------------------|
E|---------------------------------------|

e|-------------------------------------------|
B|-------------------------------------------|
G|-------------------------------------------|
D|-7-5-3-0----8--7-5----7-5-3-0----8--7-5----|
A|--8-7---4-0--10-8-7-5--8-7---4-0--10-8-7-5-|
E|-------------------------------------------|

Dm               Dm
Cuando despiertan mis ojos y veo
Dm               Dm         A7
Que sigo viviendo contigo Perú
A7               A7
Emocionado doy gracias al cielo
A7               A7         Dm
Por dar me la vida contigo Perú
Dm              Dm
Tu eres muy grande y lo seguirás siendo
Dm                               Dm
Porque si todos estamos contigo Perú

Sobre mi pecho
               Gm
Yo llevo tus colores
             A7             Dm
Y están mis amores contigo Perú
          Gm
Somos tus hijos
         Dm
Y nos uniremos
                    Gm       A7    D
Y seguro que triunfaremos contigo Perú
         D
Unida la costa
         D
Unida la sierra
         D
Unida la selva
          G
Contigo Perú

            G
Unido el trabajo
           G
Unido el deporte
          G        A7         D
Unidos el norte, el centro y el sur

             D
A triunfar peruanos
             D
Que somos hermanos
              D                A7
Que sea la victoria nuestra gratitud
           G
Te daré la vida
            Dm
y cuando yo muera
               G
me uniré en la tierra
    A7    Dm(la segunda D)
Contigo Perú.. x2

 

Tags: , , , , , , , , , , , ,

Comments are closed.

Volver a Cancionero