Volver a Cancionero



Olga,Acorde Guitarra,Acorde Guitarra, Letra Tabladura, Cancionero Tuna, Peru Criollo, musica criolla


.

Olga

Autor: Pablo Casas Padilla.

TunaEspaña, Don Dudo, Asilo de Ancianos, cancionero tuna, musica de tuna, certamen internacional  tuna, Juntamento, canciones de tuna, musica de tuna,

Interpretan: TunaEspaña, zambo cavero,Óscar Avilés Arcos y Curro Carrera

TunaEspaña (Don Dudo) www.TunaEspaña.es

Ritmo: Musica Criolla

.

INTRO

  sT         T         T          T
e|-8-8-6-4---8-8-6-4---8-8-6-----8-8-6-----|
 |-9-9-8-6---9-9-8-6---8-8-8-8---8-8-8-8---|
 |---------------------------8---------8---|
 |-----------------------------------------|
 |-----------------------------------------|
E|-----------------------------------------|
    T         T
|--s5-5-5-5-5s7-7-7-7--8-8-6-6------------|
|--s6-6-6-6-6s8-8-8-8--8-8-8-8------------|
|------------------------------9--9-8-8---|
|-----------------------------10-10-9-9---|
|-----------------------------------------|
|-----------------------------------------|

            T
|-8-8-6-4---8-8-6-4---8-8-6-----8-8-6-----|
|-9-9-8-6---9-9-8-6---8-8-8-8---8-8-8-8---|
|---------------------------8---------8---|
|-----------------------------------------|
|-----------------------------------------|
|-----------------------------------------|
    T         T                T
|--s5-5-5-5-5s7-7-7-7--8-8-8-8-8-------------|
|--s6-6-6-6-6s8-8-8-8--8-8-8-8-8-------------|
|--------------------------------------------|
|------------------------------------0-1-2-3-|
|--------------------------------2-3---------|
|--------------------------------------------|

VERSO

   Fam/SOL
Tu crees que confese
                    DOm
la pasion que hay en mi fue porque yo te ame
                    SOL
la prueba de hombre doy, te puedo perdonar
                DOm-DO7
por tu mal proceder

Fam/SOL
nunca quise yo creer
                   DOm
que fueras tan capaz de hacerme a mi sufrir
                SOL
tu mala canallada como es igual a ti
                 DOm-DO7
la tendras que pagar        [BIS]

CORO

Fam/SOL                               DOm
Olga no te olvides no pretendas engañarme
                                  SOL
ya te dicho que soy hombre y te perdono porque te amo
                     DOm        DO7
y te resistes sin tener tu la razon
Fam/SOL                                     DOm
como el que te habla poco encuentras en el mundo
                                SOL
que te exiga tu cariño tan farsante
                          DOm  DO7
pero con todo eso te perdonare           [BIS]

INTRO

CORO x2

con todo eso.. Rem Dom SOL
            SOL
te perdoooo...na....reeeee

e|--------------8-----------|
 |------------8-------------|
 |----------8---------------|
 |-------10-----------------|
 |----10--------------------|
E|--8-----------------------|

Acordes

  Fam/SOL  DOm  DO7 SOL REm
e|---4------3----3---3-------|
 |---6------4----5---3---6---|
 |---5------5----3---4---7---|
 |---3------5----5---5---7---|
 |---3------3----3---5---5---|
E|---3------3----3---3---5---|
TunaEspaña, Tuna España, Cancionero Murcia, Canciones de tuna, Musica de Tuna, Casino Murcia, Tuna Medicina Murcia, Ronda La Tuna.



Otro Tono
  REm                                     LAm
  Tu crees y confese la pasión que hay en mi, fue porque yo te ame

                        MI                                   LAm - LA7
  la prueba de hombre doy, te puedo perdonar, por tu mal proceder

  REm                                    LAm
  Nunca quize yo creer que fueras tan capaz, de hacerme a mi sufrir

                 MI                                     LAm - LA7
  tu mala canallada como tu igual a ti, la tendras que pagar.


  REm                                  LAm
  Olga no me olvides no pretendas engañarme

                                          MI
  ya te he dicho que soy hombre y te perdono, por que te amo

                     LAm        LA7
  Te resistes sin tener tu la razón.

  REm                                       LAm
  Como el que habla poco encuentras en el mundo

                                   MI
  que te exija tu cariño tan farsante,

                             LAm - LA7 
  pero con todo eso te perdonare.
 

TunaEspaña, Tuna España, Cancionero tuna, Baeza 

Tags: , , , , , , , , , , , , , ,

Comments are closed.

Volver a Cancionero