Volver a Cancionero



Tu Perdición,Acorde Guitarra, Letra Tabladura, Cancionero Tuna,Musica Criolla


.

Tu Perdición

Autor:

TunaEspaña, Don Dudo, Asilo Ancianos, Paco, Secre, cxancionero tuna, canciones de tuna

Interpretan: TunaEspaña, zambo cavero

TunaEspaña (Don Dudo) www.TunaEspaña.es

Ritmo: Musica Criolla

.

INTRO:
e|--2------12----13----14-----12----10------11----12-----
B|----3----13----14----15-----13----12----8-----9--------
G|-------------------------------------------------------
D|-------------------------------------------------------
A|-------------------------------------------------------
E|-----------------------------------------------------0-

                                            (ARPEGIOS)
e|--10----8-------9----10----------8----------7----0------
B|--12----10----6-----7-----------10---------8------0-----
G|------------------------------------------7--------1----
D|-----------------------------------------9----------0---
A|----------------------------------------10-----------2--
E|---------------------------10----------7--------------0-

e|---------------------------------------------------------
B|--7----------7------------8--------------------------8---
G|-----9----------9------------9---------------------9-----
D|--------10---------10-----------9----------------9------8
A|------------7----------7----------10-9----7-9-10---------
E|---------------------------------------------------------

e|------9------------9-------------------------------------
B|----8------------8--------9----9-------9----9----9-------
G|--9------------8--------9----8----7----7----7----7-------
D|----------7----------------------------------------------
A|---------------------------------------------------------
E|---------------------------------------------------------

e|---------------------------------------------------------
B|--7----------7------------8--------------------------8---
G|-----9----------9------------9---------------------9-----
D|--------10---------10-----------9----------------9------8
A|------------7----------7----------10-9----7-9-10---------
E|---------------------------------------------------------

e|------9------------9------------------0-------------------
B|----8------------8------------------0---------------------
G|--9------------8------------------0-----------------------
D|----------7---------------------2-------------------------
A|-----------------------------2----------------------------
E|------------------------0-3-------------------------------

        Am                        Em
En un rincon del arrabal la vi rogar

                    B                      Em     E7
y sus ojitos verde mar,tenian huellas de llorar,

          Am                        Em
marchita flor que ya perdiera su color

                     B                           Em     E7
por un capricho del amor que la llevo a la perdicion.

        C         D           G            B                   Em       E7
Sola quedo desamparada y sin amor y solo Dios sabra si tiene salvacion.

           Am                          Em
Y en un rincon del arrabal tendra que estar,

                     B                     Em     E7
su corazon no puede amar, ha de morir sin olvidar,

      Am                         Em
tan solo yo que la queria y la adore

                       B
al verla asi tambien llore,

                         Em
como la noche en que se fue.

 

Tags: , , , , , , , , , , , ,

Comments are closed.

Volver a Cancionero